Guitaretab - guitar tabs
Song name
# A B C D E F G H I J K L M N O P Q R S T U V W X Y Z

Association - Windy tab

* note * this whole song is played in a syncopated rythym with the accent on the
first beat of every second measure. If you dont belive me, just mess around with
it till youre happy. =(
||---------|--------|---------|---------|---------|---------|---------|---------|
||---------|--------|---------|---------|---------|---------|---------|---------|
||---------|--------|---------|---------|---------|---------|---------|---------|
||-2-22-22-|-2-22-22|-0-00-00-|-0-00-00-|-3-33-33-|-3-33-33-|-2-22-22-|-0-00-00-|
||---------|--------|---------|---------|---------|---------|---------|---------|
||---------|--------|---------|---------|---------|---------|---------|---------|

|-----|---------|---------|---------|---------|---------|---------|---------|---------|
|-----|---------|---------|---------|---------|---------|---------|---------|---------|
|-----|---------|---------|---------|---------|---------|---------|---------|---------|
|-----|-4-44-44-|-0-00-00-|-4-44-44-|-0-00-00-|-3-33-33-|-0-00-00-|-3-33-33-|-0-00-00-|
|-3-0-|---------|---------|---------|---------|---------|---------|---------|---------|
|-----|---------|---------|---------|---------|---------|---------|---------|---------|
[ Tab from: http://www.guitaretab.com/a/association/652.html ]
|-----|---------|---------|---------|---------|---------|---------|---------|-----|
|-----|---------|---------|---------|---------|---------|---------|---------|-----|
|-----|---------|---------|---------|---------|---------|---------|---------|-----|
|-2-0-|---------|---------|---------|---------|---------|---------|---------|-----|
|-----|-4-44-44-|-0-00-00-|-4-44-44-|-0-00-00-|-3-33-33-|-0-00-00-|-3-33-33-|-2-0-|
|-----|---------|---------|---------|---------|---------|---------|---------|-----|

|---------|---------|---------|---------|---------|---------|---------|---------|---------|---------|
|---------|---------|---------|---------|---------|---------|---------|---------|---------|---------|
|---------|---------|---------|---------|---------|---------|---------|---------|---------|---------|
|---------|---------|---------|---------|---------|---------|---------|---------|---------|---------|
|---------|---------|---------|---------|---------|---------|---------|-4-44-44-|-0-00-00-|-4-44-44-|
|-0-00-00-|-0-00-00-|-1-11-11-|-1-11-11-|-2-22-22-|-3-33-33-|-4-5-6-7-|---------|---------|---------|


|---------|---------|---------|---------|---------|---------|---------|---------|---------|-----|-----|
|---------|---------|---------|---------|---------|---------|---------|---------|---------|-----|-----|
|---------|---------|-0-------|---------|-0-------|---------|---------|---------|---------|-----|-----|
|-0-00-00-|-4-44-44-|---00-0--|-4-44-44-|---00-00-|-3-33-33-|-4-00-00-|-3-33-33-|-4-00-00-|-2--1|-0---|
|---------|---------|---------|---------|---------|---------|---------|---------|---------|-----|---4-|
|---------|---------|---------|---------|---------|---------|---------|---------|---------|-----|-----|

|-----|-----|
|-----|-----|
|-----|-----|
|-----|-----|
|-4-3-|---0-|
|-----|-4---|
Related for Windy tab