Guitaretab - guitar tabs
Song name
# A B C D E F G H I J K L M N O P Q R S T U V W X Y Z

Assorted Jelly Beans - Brain Dead tab

-------------------------------------------------------------------------------
			     BRAIDEAD - Assorted Jelly Beans
-------------------------------------------------------------------------------
Tabbed by: Bobert
Tuning: Standard

Assorted Jelly Beans are one of my favorite ska bands and I was dissapointed to not find 
of their songs tabbed out here so I tabbed this. It's really easy. This Is my first 
please rate.

Intro/Chourus:
w/ distortion                  x3
e|-------------------------------|-------------------|
B|-------------------------------|-------------------|
G|-------------------------------|-------------------|
D|----------7----7--------5----5-|--10---7---5-7-10--|
A|---3----3-5----5-5----5-3----3-|--8----5---3-5-8---|
E|---1----1--------3----3--------|-------------------|

Verse:    using ska upstroke style
Clean

Riff 1  Clean
e|-x--8-x--8-x-6-x-6-x-8-x-8-x-8-x-8-|
B|-x-10-x-10-x-8-x-8-x-8-x-8-x-8-x-8-|
G|-x-10-x-10-x-8-x-8-x-9-x-9-x-9-x-9-|
D|-----------------------------------|
A|-----------------------------------|
E|-----------------------------------|

riff 2  Clean
e|-x-6-x-6-x-8-x-8-x--8-x--8-x--8-x--8-|
B|-x-6-x-6-x-8-x-8-x-10-x-10-x-10-x-10-|
G|-x-7-x-7-x-9-x-9-x-10-x-10-x-10-x-10-|
D|-------------------------------------|
A|-------------------------------------|
E|-------------------------------------|
[ Tab from: http://www.guitaretab.com/a/assorted-jelly-beans/146317.html ]
Bridge: w/ distortion
    PM      PM      PM      PM         PM      PM      PM
e|----------------------------------|----------------------------|
B|----------------------------------|----------------------------|
G|------4h5-----2h3-----------------|------4h5-----2h3-----------|
D|----------------------2h3-----2h3-|----------------------3-3-3-|
A|--3-3-----1-1---------------------|--3-3-----1-1---------------|
E|------------------1-1-----1-1-----|------------------1-1-------|
Outro:  w/ distortion

e|------------------------------|-------------------------------------|
B|------------------------------|-------------------------------------|
G|------------------------------|-------------------------------------|
D|-5--5-5-3--3-3----------------|-5--5-5-3--3-3-10--10-10-10-10-10-10-|
A|-3--3-3-1--1-1-3--3-3-3-3-3-3-|-3--3-3-1--1-1-8---8--8--8--8--8--8--|
E|---------------1--1-1-1-1-1-1-|-------------------------------------|

                   PM..........
e|------------------------------|----------------------------------------|
B|------------------------------|----------------------------------------|
G|------------------------------|----------------------------------------|
D|-5--5-5-3--3-3----------------|-5--5-5-3--3-3-10--8---7---1---1--------|
A|-3--3-3-1--1-1-3--3-3-3-3-3-3-|-3--3-3-1--1-1-8---6---5---3---3-3~~~~~-|
E|---------------1--1-1-1-1-1-1-|---------------------------------1~~~~~-|

Intro x1
Riff 1 x8
Riff 2 x4
Intro x1
Riff 1 x8
Riff 2 x4
Intro x1
Bridge x2
Riff 1 x12
Outro x1

| PM palm mute
| /  slide up
| \  slide down
| h  hammer-on
| p  pull-off
| ~  vibrato
| +  harmonic
| x  Mute note
===============================================================================