Song name
# A B C D E F G H I J K L M N O P Q R S T U V W X Y Z

Asspera - Pogo Al Corazon tab

Afinación:
D#-G#-C#-F#-A#-D#

Intro:

D#-------------------------------------|
A#-------------------------------------|
F#-6/9-8-9-9/16------------------------|   x2
C#-------------------------------------|
G#-------------------------------------|
D#-------------------------------------|

D#--------------------------------------|
A#--------------------------------------|
F#-6/9-8-9-9/16-16/18-16-14-------------|
C#--------------------18-16-14-16-16/18-|
G#--------------------------------------|
D#--------------------------------------|

D#-------------------------------------|
A#------------------17-----------------|
F#-6/9-8-9-16/18-16--------------------|
C#-------------------------------------|
G#-------------------------------------|
D#-------------------------------------|

MI
Yo preparado el asado,
LA
trae vos el vino, (a las gordas no llames)
MI
Hoy le pongo mi casa,
LA
a esta fiesta entre amigos (las putas vienen despues)
C#5
Recordando momentos,
LA
partuzas de antaño
C#5
en la mesa choripan,
el fulbito guerreado,
D#| 0-2-3-5    B5
y aquel primer faso,
entre risas y metal.

REPITE INTRO

Alegría en los rostros,
de esa buena gente (que acompañan sin chistar)
con los cuales comparto,
cagar en los baños,
de las multinacional
Eruptando a la vida,
luchando por algo,
que algún día llegara
nos juntamos, brindamos,
una vez por año
haciendo aguante siempre estas! MI
          LA
Amigo mio!
                         MI
hoy te canto esta canción
                    LA                  MI
No habla de mierdas, ni falopa ni peron
         LA
Amigo mio!
                 C#5
hoy la fría pago yo
                       B5
en las buenas y en las malas,

Pogueando al corazón!

REPITE TODO EL INTRO COMPLETO

C#5                LA5
Siempre donde vaya, estarás,
B5                  C#5
alentando sin parar.
           LA5
Gritando y puteando,
B5
contra todo el mundo,
juntos hasta la conc** de dios!

SOLO
(Creo que las notas son iguales al coro)

MI
(Se que estas ahí tocando tus cacerolas,
LA                              MI
Zapando con Darrell, con Pappo, con Osvaldo, con el Yaco Pastoriu,
LA
morfandote unos patys con bermu chimichurreando con Hendrix.
MI
Mario Lauro Santillan, Marito Querido, Marito Querido!)
Tap to rate this tab
 
# A B C D E F G H I J K L M N O P Q R S T U V W X Y Z