Song name
# A B C D E F G H I J K L M N O P Q R S T U V W X Y Z

Asta Kask - Det Vill Jag Va tab

Great Song from one of the earliest Hardcore bands out of Sweden. The amount of times you
play each chord are not exact. Listen to the song and you'll have no problem figuring out
how it's played. EnjOi!

Intro 
E|---------------|
B|---------------|
G|---------------|
D|---------------|
A|---1212121212--|
E|---1010101010--|

Verse
E|-------------------------------------------------------|
B|-------------------------------------------------------|
G|-------------------------------------------------------|
D|---------------------12---------------10---------------|
A|---121212--121212151510--101010101010-8-10121212121212-|
E|---101010--1010101313----8-8-8-8-8-8----8-101010101010-|

Chorus
E|--------------------------------------|
B|--------------------------------------|
G|--------------------------------------|
D|--------------1010-----[14]-----------|
A|--1212--1010--8-8---77-[12]-----------|
E|--1010-8-8---------55----------------|

2nd half of the song:

Intro 
E|----------------|
B|----------------|
G|----------------|
D|----------------|
A|---1212121212---|
E|---1414141414---|

Verse
E|--------------------------------------------------------|
B|--------------------------------------------------------|
G|--------------------------------------------------------|
D|-------------------14---------------12------------------|
A|--141414141414171712--121212121212-10-12141414141414---|
E|--1212121212121515----101010101010----10121212121212---|

Chorus
E|--------------------------------------|
B|--------------------------------------|
G|--------------------------------------|
D|--------------1212--------------------|
A|--1414--1212--1010---99---------------|
E|--1212-1010---------77---------------|


After that, end on
E|--------|
B|--------|
G|--------|
D|--------|
A|----9---|
E|----7---|
Tap to rate this tab
# A B C D E F G H I J K L M N O P Q R S T U V W X Y Z