Song name
# A B C D E F G H I J K L M N O P Q R S T U V W X Y Z

Asta - My Heart Is On Fire tab

Tab based on:
https://www.youtube.com/watch?v=HGuxR3_CmUw

! Capo on 3 !

Intro is:
All down strums

e|-x--------x--------x--------x--------|
B|-x--------x--------x--------x--------|
G|-x-- x4---x-- x4---x-- x7---x-- x1---|
D|-2--------0--------0--------0--------|
A|-2--------0--------2--------0--------|
E|-0--------2--------3--------0--------|

Chorus:
The first 4 bars of the chorus which is the C variation chord is all down strums then it 
takes on a second rhythm for the Em variation just listen to the recording its simple 
DUDU but the rhythm could be tricky depending on your skill level

e|-0-------------3-----------------------------------------------|
B|-3-------------0-----------------------------------------------|
G|-0-- 2 bars----0-- 2 bars--------------------------------------|
D|-2-------------2-----------------------------------------------|
A|-3-------------2-----------------------------------------------|
E|-x-------------0-----------------------------------------------|

On that last part of the chorus you strum a single Em chord instead of playing 2 bars of 
the Em variation. (Let it ring for the duration) then get back into the verse.
Tap to rate this tab
# A B C D E F G H I J K L M N O P Q R S T U V W X Y Z