Asteria - Pet Names And Fake Fights tab

Pet Names and Fake Fights
Asteria
Standard Tuning
*=Palm mute
Lead (continuous part) [Alternate picking needs to be an ability of yours]
 
E|-------0-----------0-----------0-------|
B|-----4---4-------4---4-------4---4-----|
G|---4-------4---4-------4---4-------4---|
D|-6-----------6-----------6-----------6-|
A|---------------------------------------|
E|---------------------------------------|

Rhythm (during Continuous lead)
   * * *
E|---------------------------------------|
B|---------------------------------------|
G|---------------------------------------|
D|---------------------------------------|
A|-7-7-7-6-------------------------------|
E|-5-5-5-4-------------------------------|
Tap to rate this tab
 
# A B C D E F G H I J K L M N O P Q R S T U V W X Y Z