Song name
# A B C D E F G H I J K L M N O P Q R S T U V W X Y Z

Asteria - A Second Chance To Make A First Impression tab

Second Asteri tab on U-G :D

Figure out strumming yourself it isn't that hard

Intro
|--------|
|--------|
|--------|
|8-----3-|
|10----5-|
|12----7-|

1st time
|-------|
|-------|
|-------|
|-------|
|5-4----|
|----5--|

2nd time
|-------|
|-------|
|-------|
|-------|
|5-7-4--|
|-------|

After that we go to this
|-------------|
|--7-8--8-7---|
|-7--------7--|
|9------------|
|-------------|
|-------------|
................ P.M.

|-------------|
|--7-8--8-7---|
|-7--------7--|
|5------------|
|-------------|
|-------------|
................ P.M.

|------------|
|------------|
|2--4--------|
|2--4--2--2--|
|4--6--2--2--|
|------4--0--|

|--------------|
|--------------|
|--4---6-8--5--|
|--4---x-x--x--|
|--6---4-6--3--|
|--------------|


That's most of the song.  Btw, my first tab so it's probobly terribly incorrect.
Tap to rate this tab
# A B C D E F G H I J K L M N O P Q R S T U V W X Y Z