Guitaretab - guitar tabs
Song name
# A B C D E F G H I J K L M N O P Q R S T U V W X Y Z

Asteria - Drink Life To The Lees tab

SONG: Drink Life To The Lees
ARTIST: Asteria

There is, of course, more than one guitar in the song,
but I tabbed it so it could be played on just one.
For that reason, there are a lot of parts I've omitted.

Iíve already submitted an intro and Ďtis truly an awesome one:D
Iím sorry if this one is not a very accurate tab, my guitar is crap.. haha..


Standard Tuning

Intro (piano--arranged for guitar)
(This intro is 100% accurate, Iíve tried it on piano and itĎs just perfect)

|----------3--2-----|----------3-2-0----|----------0--------|------------------|
|-------------------|----------------3--|-------------3-----|--------3-2-------|
|-------------------|-------------------|-------------------|-------------3----|
|----0-2------------|----0-2------------|----0-2------------|----0-------------|x2
|--2----------------|--1----------------|--0----------------|------------------|
|-------------------|-------------------|-------------------|--3---------------|

Verse 1 (guitar)

|----------------------------------------|
|----------------------------------------|
|----------------------------------------|
|--9-9----8-8----7-7----5-5-5-5-5-5-5-5--|
|--9-9----8-8----7-7----5-5-5-5-5-5-5-5--|
|--7-7----6-6----5-5----3-3-3-3-3-3-3-3--|
	"Simply slide in my sheets..."

|----------------------------------------|
|----------------------------------------|
|----------------------------------------|
|--9-9----8-8----7-7----5-5-5-5-5-5-5-5--|
|--9-9----8-8----7-7----5-5-5-5-5-5-5-5--|
|--7-7----6-6----5-5----3-3-3-3-3-3-3-3--|
	"Should she shatter my heart..."

(Guitar 2 enters..)
|-------------------------------------------------------------------------|
|-------5-5-5-5-5-5-------5-5-5-5-5-5-------5-5-5-5-5-5-------------------|
|-------7-7-7-7-7-7-------7-7-7-7-7-7-------7-7-7-7-7-7-------------------|
|--9-9---------------8-8---------------7-7---------------5-5-5-5-5-5-5-5--|
|--9-9---------------8-8---------------7-7---------------5-5-5-5-5-5-5-5--|
|--7-7---------------6-6---------------5-5---------------3-3-3-3-3-3-3-3--|
 "Was it a shallow attempt to save her skin.."

|-------------------------------------------------------------------------|
|-------5-5-5-5-5-5-------5-5-5-5-5-5-------5-5-5-5-5-5-------------------|
|-------7-7-7-7-7-7-------7-7-7-7-7-7-------7-7-7-7-7-7-------------------|
|--9-9---------------8-8---------------7-7---------------5-5-5-5-5-5-5-5--|
|--9-9---------------8-8---------------7-7---------------5-5-5-5-5-5-5-5--|
|--7-7---------------6-6---------------5-5---------------3-3-3-3-3-3-3-3--|
	"Tell me again, are you the reason I breathe.."

Chorus

|-----------------------------------|-----------------------------------|
|-----------------------------------|-----------------------------------|
|-----------------------------------|-----------------------------------|
|--8-8-8-8-8-8-8-8-8-8-8-8-8-8-8-8--|--9-9-9-9-9-9-9-9-9-9-9-9-9-9-9-9--|
|--8-8-8-8-8-8-8-8-8-8-8-8-8-8-8-8--|--9-9-9-9-9-9-9-9-9-9-9-9-9-9-9-9--|
|--6-6-6-6-6-6-6-6-6-6-6-6-6-6-6-6--|--7-7-7-7-7-7-7-7-7-7-7-7-7-7-7-7--|
 "And I reckon this weapon I yield.."

|-----------------------------------|----------------------|
|-----------------------------------|----------------------|
|-----------------------------------|----------------------|
|--8-8-8-8-8-8-8-8-8-8-8-8-8-8-8-8--|--9-9--9-9--9-9--9-9--|
|--8-8-8-8-8-8-8-8-8-8-8-8-8-8-8-8--|--9-9--9-9--9-9--9-9--|
|--6-6-6-6-6-6-6-6-6-6-6-6-6-6-6-6--|--7-7--7-7--7-7--7-7--|
 "A chance to right the words that I wrote.."

|-----------------------------------|-----------------------------------|
|-----------------------------------|-----------------------------------|
|-----------------------------------|-----------------------------------|
|--8-8-8-8-8-8-8-8-8-8-8-8-8-8-8-8--|--9-9-9-9-9-9-9-9-9-9-9-9-9-9-9-9--|
|--8-8-8-8-8-8-8-8-8-8-8-8-8-8-8-8--|--9-9-9-9-9-9-9-9-9-9-9-9-9-9-9-9--|
|--6-6-6-6-6-6-6-6-6-6-6-6-6-6-6-6--|--7-7-7-7-7-7-7-7-7-7-7-7-7-7-7-7--|
 "Trust that I will find a way out.."

|-----------------------------------|------------------|
|-----------------------------------|---5---5---5---5--|
|-----------------------------------|--7---7---7---7---|
|--8-8-8-8-8-8-8-8-8-8-8-8-8-8-8-8--|------------------|
|--8-8-8-8-8-8-8-8-8-8-8-8-8-8-8-8--|------------------|
|--6-6-6-6-6-6-6-6-6-6-6-6-6-6-6-6--|------------------|
 "And you can choose what youíd rather have." 	 (dist.)

Post Chorus
(Iím not sure how to type it out, Iím not the best at writing out tabs for electric guitar..)
[ Tab from: http://www.guitaretab.com/a/asteria/85337.html ]
|--------------------------------------------------------------------|
|--------------------------------------------------------------------|
|--------------------------------------------------------------------|
|--9-9-9-9-9-9-9-x-8-8-8-8-8-8-8-x-7-7-7-7-7-7-7-x-5-5-5-5-5-5-5-5-5-|x2
|--9-9-9-9-9-9-9-x-8-8-8-8-8-8-8-x-7-7-7-7-7-7-7-x-5-5-5-5-5-5-5-5-5-|
|--7-7-7-7-7-7-7-x-6-6-6-6-6-6-6-x-5-5-5-5-5-5-5-x-3-3-3-3-3-3-3-5-5-|

Verse 2

|---------------|---------------|---------------|--------|-----------|
|---------------|---------------|---------------|--------|------(6)--|
|---------------|---------------|---------------|--------|--8-9------|
|--9999-9-99-9--|--9999-9-99-9--|--9999-9-99-9--|--9999--|-----------|
|--9999-9-99-9--|--9999-9-99-9--|--9999-9-99-9--|--9999--|-----------|
|--7777-7-77-7--|--7777-7-77-7--|--7777-7-77-7--|--7777--|-----------|
 "Could my concern kill.."

|---------------|---------------|---------------|--------|--------|
|---------------|---------------|---------------|--------|--------|
|---------------|---------------|---------------|--------|--------|
|--9999-9-99-9--|--9999-9-99-9--|--9999-9-99-9--|--9999--|--9999--|
|--9999-9-99-9--|--9999-9-99-9--|--9999-9-99-9--|--9999--|--9999--|
|--7777-7-77-7--|--7777-7-77-7--|--7777-7-77-7--|--7777--|--7777--|
 "Kill her with kindness.."

Chorus

|-----------------------------------|-----------------------------------|
|-----------------------------------|-----------------------------------|
|-----------------------------------|-----------------------------------|
|--8-8-8-8-8-8-8-8-8-8-8-8-8-8-8-8--|--9-9-9-9-9-9-9-9-9-9-9-9-9-9-9-9--|
|--8-8-8-8-8-8-8-8-8-8-8-8-8-8-8-8--|--9-9-9-9-9-9-9-9-9-9-9-9-9-9-9-9--|
|--6-6-6-6-6-6-6-6-6-6-6-6-6-6-6-6--|--7-7-7-7-7-7-7-7-7-7-7-7-7-7-7-7--|
 "And I reckon this weapon I yield.."

|-----------------------------------|----------------------|
|-----------------------------------|----------------------|
|-----------------------------------|----------------------|
|--8-8-8-8-8-8-8-8-8-8-8-8-8-8-8-8--|--9-9--9-9--9-9--9-9--|
|--8-8-8-8-8-8-8-8-8-8-8-8-8-8-8-8--|--9-9--9-9--9-9--9-9--|
|--6-6-6-6-6-6-6-6-6-6-6-6-6-6-6-6--|--7-7--7-7--7-7--7-7--|
 "A chance to right the words that I wrote.."

|-----------------------------------|-----------------------------------|
|-----------------------------------|-----------------------------------|
|-----------------------------------|-----------------------------------|
|--8-8-8-8-8-8-8-8-8-8-8-8-8-8-8-8--|--9-9-9-9-9-9-9-9-9-9-9-9-9-9-9-9--|
|--8-8-8-8-8-8-8-8-8-8-8-8-8-8-8-8--|--9-9-9-9-9-9-9-9-9-9-9-9-9-9-9-9--|
|--6-6-6-6-6-6-6-6-6-6-6-6-6-6-6-6--|--7-7-7-7-7-7-7-7-7-7-7-7-7-7-7-7--|
 "Trust that I will find a way out.."

|-----------------------------------|------------------|
|-----------------------------------|---5---5---5---5--|
|-----------------------------------|--7---7---7---7---|
|--8-8-8-8-8-8-8-8-8-8-8-8-8-8-8-8--|------------------|
|--8-8-8-8-8-8-8-8-8-8-8-8-8-8-8-8--|------------------|
|--6-6-6-6-6-6-6-6-6-6-6-6-6-6-6-6--|------------------|
 "And you can choose what youíd rather have.." 	 (dist.)

Bridge
(I love this part, Iím not sure why 0_o ..I find this at least 90% accurate)

|------0-----------0------|------0------------0------|
|-----3--3-3------3--3-3--|-----3--3-3-------3--3-3--|
|----0----0------0----0---|----0----0-------0----0---|
|-------------------------|--------------------------|
|--2-----------2----------|--1-----------1-----------|
|-------------------------|--------------------------|

|------0-----------0------|------0-------------------|
|-----3--3-3------3--3-3--|-----3------5-5-5-5-------|
|----0----0------0----0---|----0------6-6-6-6--------|
|-------------------------|--------------------------|
|--0-----------0----------|--------------------------|
|-------------------------|--3-----------------------|

Verse 3
|--0-----0-----0----|--0-----0-----0----|
|--3-3-3-3-3-3-3-3--|--3-3-3-3-3-3-3-3--|
|----2-2---2-2---2--|----2-2---2-2---2--|
|-------------------|-------------------|x4
|-------------------|-------------------|
|-------------------|-------------------|

Outro
(I probably did a crappy job on the outro, but it sounds close enough, I guess)

|------------------------------------|
|------------------------------------|
|----------0----------------0--------|
|----0-2-1---0-2-1----0-2-1---0-2-1--|
|--2----------------2----------------|
|------------------------------------|
Repeat this..erm..a lot of times

End on
|-----------|
|-----------|
|-----------|
|--9-9-9-9--|
|--9-9-9-9--|
|--7-7-7-7--|

I reckon this song had been recorded and re-recorded millions of times, so Iíll have to 
that I tabbed one of the earlier versions of the song, and not the version currently on 
Myspace page. Ha ha..

I also need to mention that this is the 5 member rock band, and NOT the folk musicians 
share the same name.

Thatís all.
Please complain about the errors to me at goshdontlabelme@yahoo.com
I beg you.

[:
Related for Drink Life To The Lees tab