Song name
# A B C D E F G H I J K L M N O P Q R S T U V W X Y Z

Asteria - Taste The Touch tab

this is my favorite song from asteria and i hope all of u guys like it =)

. = palm mute

intro/verse:

E|----------------------------------------------------------------|
B|----------------------------------------------------------------|
G|----------------------------------------------------------------|
D|----------------------------------------------------------------|
A|7-7-7-7-7-7-7-7-2-2-2-2-2-2-2-2-3-3-3-3-3-3-3-3-2-2-2-2-5-5-5-5-| x3
E|----------------------------------------------------------------|

chorus:

E|-----------------------------------------------------------------------|
B|-----------------------------------------------------------------------|
G|9-9-9999-9-999999-5-5-5555-5-555555-4-4-4444-4-444444-5-5-5555-7-7-7777|
D|9-9-9999-9-999999-5-5-5555-5-555555-4-4-4444-4-444444-5-5-5555-7-7-7777|
A|7-7-7777-7-777777-3-3-3333-3-333333-2-2-2222-2-222222-3-3-3333-5-5-5555|x2
E|-----------------------------------------------------------------------|

verse:

E|-----------------------------------------------------------|
B|-----------------------------------------------------------|
G|9-99--9-99--99-5-55--5-55--55-4-44--4-44--44-5-55--7-77--77|
D|9-99--9-99--99-5-55--5-55--55-4-44--4-44--44-5-55--7-77--77|
A|7-77007-770077-3-33003-330033-2-22002-220022-3-33005-550055| 
E|-----------------------------------------------------------|
      ..    ..       ..    ..       ..    ..       ..    ..

E|------------------------------------------------------|
B|------------------------------------------------------|
G|9-99--9-99--99-5-55--5-55--55-4-44--4-44--44-5-55--7-7|
D|9-99--9-99--99-5-55--5-55--55-4-44--4-44--44-5-55--7-7|
A|7-77007-770077-3-33003-330033-2-22002-220022-3-33005-5| 
E|------------------------------------------------------|
      ..    ..       ..    ..       ..    ..       ..  

chorus x2

Breakdown:

E|----------------------|------------------------|
B|----------------------|------------------------|
G|----------------------|-99-999-999-999-97-7-7-7|
D|----------------------|-99-999-999-999-97-7-7-7|
A|---(keyboard fill)----|-77-777-777-777-75-5-5-5| x3
E|----------------------|------------------------|


E|-----------------------------------------------|
B|-----------------------------------------------|
G|-99-999-999-999-97-7-7-7-7-7-7-7---------------|
D|-99-999-999-999-97-7-7-7-7-7-7-7---------------|
A|-77-777-777-777-75-5-5-5-5-5-5-5----(drum fill)| x1
E|-----------------------------------------------|

chorus x2

outro:

E|------------------------------------------------------|
B|------------------------------------------------------|
G|9-99--9-99--99-5-55--5-55--55-4-44--4-44--44-5-55--7-7|
D|9-99--9-99--99-5-55--5-55--55-4-44--4-44--44-5-55--7-7|
A|7-77007-770077-3-33003-330033-2-22002-220022-3-33005-5| 
E|------------------------------------------------------|
      ..    ..       ..    ..       ..    ..       ..   
Tap to rate this tab
 
# A B C D E F G H I J K L M N O P Q R S T U V W X Y Z