Song name
# A B C D E F G H I J K L M N O P Q R S T U V W X Y Z

Asteria - The Taste The Touch Acoustic tab

Standard Tuning
FIXED IT UP A LITTLE BIT

                                    Chords in intro/verse aren't Right sorry


     (So This Is it, The feeling that i get)
E---------------------------------------------0--0--0------------------------
A----------4-------------4-------------9------0--0--0------------------------
D------------4-------------4--------x---9-----9--9--8------------------------
G------x-2-----------x-2----------------------9--9--9----------X2------------
B--2-4-------------2-4----------7--9----------7--7--7------------------------
E---------------------------------------------------------------------------|

Strum Chords Below...Each chord is played like 12 times i think

(wanna tell you a secret, and leave it on your lips)
E--0-----------0-------------0-------------0--------------------------------|
A--0-----------0-------------0-------------0--------------------------------|
D--7-----------4-------------2-------------2--------------------------------|
G--7-----------4-------------2-------------2------------X2------------------|
B--9-----------2-------------0-------------0--------------------------------|
E---------------------------------------------------------------------------|

Second guitar palm mutes the part below over the chorus

E-12-11-9-7-9-7-5-7-5-4-5-4-2-4---------------------------------------------|
A---------------------------------------------------------------------------|
D---------------------------------------------------------------------------|
G----------------------------------------------------X8---------------------|
B---------------------------------------------------------------------------|
E---------------------------------------------------------------------------|


(Watching you dance, seeing you smile)
E---------------------------------------------0--0--0------------------------
A----------4-------------4-------------9------0--0--0------------------------
D------------4-------------4--------x---9-----9--9--8------------------------
G------x-2-----------x-2----------------------9--9--9----------X2------------
B--2-4-------------2-4----------7--9----------7--7--7------------------------
E---------------------------------------------------------------------------|

(wanna tell you a secret, and leave it on your lips)
E--0-----------0-------------0-------------0--------------------------------|
A--0-----------0-------------0-------------0--------------------------------|
D--7-----------4-------------2-------------2--------------------------------|
G--7-----------4-------------2-------------2------------X2------------------|
B--9-----------2-------------0-------------0--------------------------------|
E---------------------------------------------------------------------------|

Second guitar palm mutes the part below over the chorus

E-12-11-9-7-9-7-5-7-5-4-5-4-2-4---------------------------------------------|
A---------------------------------------------------------------------------|
D---------------------------------------------------------------------------|
G------------------------------------------------------------X8-------------|
B---------------------------------------------------------------------------|
E---------------------------------------------------------------------------|


Same chord repeated below, gradually gets softer everytime

(you say never, ill say lie)
E---0------------------------------------------------------------------------|
A---0------------------------------------------------------------------------|
D---9------------------------------------------------------------------------|
G---9------------------------------------------------------------------------|
B---7------------------------------------------------------------------------|
E----------------------------------------------------------------------------|

After this it palm mutes that same chord and keeps playing and over that is this next 
palm muted

E---------------------------------------------------------------------------------|
A---------------------------------------------------------------------------------|
D---------------------------------------------------------------------------------|
G---------------------------------------------------------------------------------|
B-7-7-7-7-7-7-7-7-9-9-9-9-9-9-9-9-11-11-11-11-11-11-11-11-12-12-12-12-12-12-12-12-|
E---------------------------------------------------------------------------------|

(wanna tell you a secret, and leave it on your lips)
E--0-----------0-------------0-------------0--------------------------------|
A--0-----------0-------------0-------------0--------------------------------|
D--7-----------4-------------2-------------2--------------------------------|
G--7-----------4-------------2-------------2----------------X-2-------------|
B--9-----------2-------------0-------------0--------------------------------|
E---------------------------------------------------------------------------|

Second guitar palm mutes the part below over the chorus

E-12-11-9-7-9-7-5-7-5-4-5-4-2-4---------------------------------------------|
A---------------------------------------------------------------------------|
D---------------------------------------------------------------------------|
G-------------------------------------------------------X8------------------|
B---------------------------------------------------------------------------|
E---------------------------------------------------------------------------|


E---------------------------------------------0--0--0------------------------
A----------4-------------4-------------9------0--0--0------------------------
D------------4-------------4--------x---9-----9--9--8------------------------
G------x-2-----------x-2----------------------9--9--9----------X2------------
B--2-4-------------2-4----------7--9----------7--7--7------------------------
E---------------------------------------------------------------------------|

Tap to rate this tab
# A B C D E F G H I J K L M N O P Q R S T U V W X Y Z