Asteroid - Doctor Smoke tab

                          Doctor Smoke
                              by
                           Asteroid

http://www.asteroid.se/

Tabbed by: Stephen E.
Email: steveman1236@gmail.com

There wasn't a tab for this song or this band so I thought I'd make one, even if it 
isn't a hundred percent correct. I'm pretty sure that there are two guitar parts but I'm 
just going to tab it as one instead.

Standard D tuning

|---------------------------------------|
|---------------------------------------|
|---------------------------------------|
|---------------------------------------|
|-------------5---5h7-------------5-7---|
|-0-3-0-3/5/7---7-----0-3-0-3/5-7-------|

|---------------------------------------|
|---------------------------------------|
|---------------------------------------|
|---------------------5---------------5-|
|-------------5---5h7-------------7-5---|
|-0-3-0-3/5/7---7-------0-3-0-3/5-------|

|---------------------------------------|
|---------------------------------------|
|---------------------------------------|
|---------------------------------------|
|-------------5---5h7-------------5-7---|
|-0-3-0-3/5/7---7-----0-3-0-3/5-7-------|

|---------------------------------------|
|---------------------------------------|
|---------------------------------------|
|---------------------5---------------5-|
|-------------5---5h7-------------7-5---|
|-0-3-0-3/5/7---7-------0-3-0-3/5-------|

|-12----12--------12----12--------12----12-----------|
|-15b17-15b17-----15b17-15b17-----15b17-15b17--------|
|----------------------------------------------------|
|----------------------------------------------------|
|-----------------------------------------------5-7--|
|---------------------------------------------7------|


|-12----12--------12----12--------12----12-----------|
|-15b17-15b17-----15b17-15b17-----15b17-15b17--------|
|----------------------------------------------------|
|-------------------------------------------------5--|
|---------------------------------------------7-5----|
|----------------------------------------------------|

|---------------------------------------------------------|
|---------------------------------------------------------|
|---------------------------------------------------------|
|---------------------------------------------------------|
|-7-7-------------7-7-------------7-7----------------5-7--|
|-0-0-7-7-7-7-7-7-0-0-7-7-7-7-7-7-0-0-7-7-7-7-7-7--7------|
      a a a a a a     a a a a a a     a a a a a a

|---------------------------------------------------------|
|---------------------------------------------------------|
|---------------------------------------------------------|
|------------------------------------------------------5--|
|-7-7-------------7-7-------------7-7--------------7-5----|
|-0-0-7-7-7-7-7-7-0-0-7-7-7-7-7-7-0-0-7-7-7-7-7-7---------|
      a a a a a a     a a a a a a     a a a a a a

|------|
|------|
|------|
|------|
|-7-7--|
|-0-0--|

"The big smile on his face..."
|----------------------------------------------------------------|
|----------------------------------------------------------------|
|----------------------------------------------------------------|
|-----5---5-7-7-5------------------------5---5-7-7-5-------------|
|-5-7---7---------7-5---5-7~---------5-7---7---------7-5---5-7~--|
|---------------------7---0~---5h6h7---------------------7---0~--|

|------------------------------------------------------------------------|
|------------------------------------------------------------------------|
|-----------5---5-7p5h7-5------------------------------------------------|
|-------5-7---7-----------7-5---5-7~--------------5---5-7-7-5------------|
|-5h6h7-----------------------7---0~----------5-7---7---------7-5--5-7~--|
|---------------------------------------5h6h7---------------------7--0~--|

|----------------------------------------------------------------------|
|----------------------------------------------------------------------|
|----------------------------------------------------------------------|
|-----------5---5-7-7-5------------------------5---5-7-7-5-------------|
|-------5-7---7---------7-5---5-7~---------5-7---7---------7-5---5-7~--|
|-5h6h7--------------------7---0~---5h6h7----------------------7---0~--|

|------------------------------------------------------------------------|
|------------------------------------------------------------------------|
|-----------5---5-7p5h7-5------------------------------------------------|
|-------5-7---7-----------7-5---5-7~--------------5---5-7-7-5------------|
|-5h6h7-----------------------7---0~----------5-7---7---------7-5--5-7~--|
|---------------------------------------5h6h7---------------------7--0~--|

"Doctor Smoke..."
|-------------------------------------|
|-------------------------------------|
|-------------------------------------|
|-5-5-5-55-5-5-5-55-7-7-7-77-4-4-4-44-|
|-5-5-5-55-5-5-5-55-7-7-7-77-4-4-4-44-|
|-3-3-3-33-3-3-3-33-5-5-5-55-2-2-2-22-|

|----------------------------------------|
|----------------------------------------|
|----------------------------------------|
|----------------------------------------|
|-7-7-7-57-57-7-7-57-57-7-7-57-57-7-7-57-|
|-0-0-0-00-00-0-0-00-00-0-0-00-00-0-0-00-|

|-------------------------------------|
|-------------------------------------|
|-------------------------------------|
|-5-5-5-55-5-5-5-55-4-4-4-44-7-7-7-77-|
|-5-5-5-55-5-5-5-55-4-4-4-44-7-7-7-77-|
|-3-3-3-33-3-3-3-33-2-2-2-22-5-5-5-55-|

|----------------------------------------|
|----------------------------------------|
|----------------------------------------|
|----------------------------------------|
|-7-7-7-57-57-7-7-57-57-7-7-57-57-7-7\---|
|-0-0-0-00-00-0-0-00-00-0-0-00-00-0-0----|

Harmonica Solo
|----------------------------------------------------------------|
|----------------------------------------------------------------|
|----------------------------------------------------------------|
|-----5---5-7-7-5------------------------5---5-7-7-5-------------|
|-5-7---7---------7-5---5-7~---------5-7---7---------7-5---5-7~--|
|---------------------7---0~---5h6h7---------------------7---0~--|

|------------------------------------------------------------------------|
|------------------------------------------------------------------------|
|-----------5---5-7p5h7-5------------------------------------------------|
|-------5-7---7-----------7-5---5-7~--------------5---5-7-7-5------------|
|-5h6h7-----------------------7---0~----------5-7---7---------7-5--5-7---|
|---------------------------------------5h6h7---------------------7--0~--|

"There's something in his eyes..."
|------------------------------------------------------------|
|------------------------------------------------------------|
|------------------------------------------------------------|
|-5---5-7-7-5------------------------5---5-7-7-5-------------|
|---7---------7-5---5-7~---------5-7---7---------7-5---5-7~--|
|-----------------7---0~---5h6h7---------------------7---0~--|

|------------------------------------------------------------------------|
|------------------------------------------------------------------------|
|-----------5---5-7p5h7-5------------------------------------------------|
|-------5-7---7-----------7-5---5-7~--------------5---5-7-7-5------------|
|-5h6h7-----------------------7---0~----------5-7---7---------7-5--5-7~--|
|---------------------------------------5h6h7---------------------7--0~--|

"Doctor Smoke..."
|-------------------------------------|
|-------------------------------------|
|-------------------------------------|
|-5-5-5-55-5-5-5-55-7-7-7-77-4-4-4-44-|
|-5-5-5-55-5-5-5-55-7-7-7-77-4-4-4-44-|
|-3-3-3-33-3-3-3-33-5-5-5-55-2-2-2-22-|

|----------------------------------------|
|----------------------------------------|
|----------------------------------------|
|----------------------------------------|
|-7-7-7-57-57-7-7-57-57-7-7-57-57-7-7-57-|
|-0-0-0-00-00-0-0-00-00-0-0-00-00-0-0-00-|

|-------------------------------------|
|-------------------------------------|
|-------------------------------------|
|-5-5-5-55-5-5-5-55-4-4-4-44-7-7-7-77-|
|-5-5-5-55-5-5-5-55-4-4-4-44-7-7-7-77-|
|-3-3-3-33-3-3-3-33-2-2-2-22-5-5-5-55-|

|----------------------------------|
|----------------------------------|
|----------------------------------|
|----------------------------------|
|-7-7-7-57-57-7-7-57-57-7-7-57-57--|
|-0-0-0-00-00-0-0-00-00-0-0-00-00--|

Guitar Solo
|------------------------------------------------------|
|------------------------------------------------------|
|------------------------------------------------------|
|---5---5/9~----9-7-5-7---------5---5/9~----9-7-5-7----|
|-7---7-----------------7~----7---7-----------------7~-|
|------------------------------------------------------|

|-------------------------------------------------------------|
|---8---8/12~---12-10-8-10---------8---8/12~----12-10-8-10----|
|-9---9--------------------9~----9---9---------------------9~-|
|-------------------------------------------------------------|
|-------------------------------------------------------------|
|-------------------------------------------------------------|

"La la la la la..."
|-------------------------------------------------------------------|
|-------------------------------------------------------------------|
|-------------------------------------------------------------------|
|-------------------------------------------------------------------|
|-7-7-7-57-57-7-7-57-57-7-7-57-57-7-7-57-57-7-7-57-57-7-7-57-57-7-7-|
|-0-0-0-00-00-0-0-00-00-0-0-00-00-0-0-00-00-0-0-00-00-0-0-00-00-0-0-|

|-------------------------------------------------------------------|
|-------------------------------------------------------------------|
|-------------------------------------------------------------------|
|-------------------------------------------------------------------|
|-57-57-7-7-57-57-7-7-57-57-7-7-57-57-7-7-57-57-7-7-57-57-7-7-57-57-|
|-00-00-0-0-00-00-0-0-00-00-0-0-00-00-0-0-00-00-0-0-00-00-0-0-00-00-|

|-------------------------|
|-------------------------|
|-------------------------|
|-------------------------|
|-7-7-57-57-7-7-57-57-7-7-|
|-0-0-00-00-0-0-00-00-0-0-|

|-------------------------------------|
|-------------------------------------|
|-------------------------------------|
|-----------5---5-7p5h7-5---------9~--|
|-------5-7---7-----------7-5---5-7~--|
|-5h6h7-----------------------7---0~--|

a = artificial harmonic

And that's it. Email me for questions.
Tap to rate this tab
 
# A B C D E F G H I J K L M N O P Q R S T U V W X Y Z