Song name
# A B C D E F G H I J K L M N O P Q R S T U V W X Y Z

Asteroid - Garden tab

                          Garden
                            by
                         Asteroid

Tabbed by: Stephen E.
Email: steveman1236@gmail.com

Standard D tuning

Didn't feel like tabbing out the solo by ear.


Brief drum intro

|------------------------------------------------------------------------|
|------------------------------------------------------------------------|
|------------------------------------------------------------------------|
|-5--4-5----4-5-5-4---/9-8\-5--4-5----4-5-5-4---/9~--9b10r9--8~---8b9r8--|
|--------/5---------5--------------/5---------5--------------------------|
|------------------------------------------------------------------------| 
x2

|------------------------------------------------------------------------|
|------------------------------------------------------------------------|
|-----------------------------------------------/7~--7b8r7---6~---6b7r6--|
|-5--4-5----4-5-5-4---/9-8\-5--4-5----4-5-5-4---/9~--9b10r9--8~---8b9r8--|
|--------/5---------5--------------/5---------5--------------------------|
|------------------------------------------------------------------------|

|-------------------------------------------------------------------------|
|-------------------------------------------------------------------------|
|---7---7---7-----------7---7--7-7-12----7---7---7-----------7---7--7-7-4-|
|---6---6---6-----------6---6--7-7-12----6---6---6-----------6---6--7-7-4-|
|---7---7---7-------5---7---7--5-5-10----7---7---7-------5---7---7--5-5-2-|
|-0---0---0---0-6h7---0---0-------------0---0---0---0-6h7---0---0---------|
x6

|----|     |-----------------------------|
|----|  b  |-----------------------------|
|-9--|  e  |-9-9-7-9---9-9-7-9---9-9-7-9-|
|-9--|  a  |-9-9-7-9---9-9-7-9---9-9-7-9-|
|-7--|  t  |-7-7-5-7---7-7-5-7---7-7-5-7-|
|----|     |-----------------------------|
Acoustic Part
|------------------------------------------------|
|------------------------------------------------|
|------------------------------------------------|
|---------9-5-7-4-5---7-7-5-7-9-10-9-9-12-9------|
|-7-7-5-7-----------5-----------------------10-9-|
|------------------------------------------------|

|------------------------------------------------|
|------------------------------------------------|
|------------------------------------------------|
|---------9-5-7-4-5---7-7-5-7-9-10-9-9-12-9------|
|-7-7-5-7-----------5-----------------------9-5--|
|------------------------------------------------|

|------------------------------------------------|
|------------------------------------------------|
|------------------------------------------------|
|---------9-5-7-4-5---7-7-5-7-9-10-9-9-12-9------|
|-7-7-5-7-----------5-----------------------10-9-|
|------------------------------------------------|

|-------------------------------------------------|
|-------------------------------------------------|
|-------------------------------------------------|
|---------9-5-7-4-5---7-7-5-7-9-10-9-9-12-9-------|
|-7-7-5-7-----------5-----------------------10-10-|
|-------------------------------------------------|

Distortion
|---------------------------------------|
|---------------------------------------|
|-9-9-7-9---9-9-7-9---9-9-7-9---9-9-7-9-|
|-9-9-7-9---9-9-7-9---9-9-7-9---9-9-7-9-|
|-7-7-5-7---7-7-5-7---7-7-5-7---7-7-5-7-|
|---------------------------------------|

|------------------------------------------------|
|------------------------------------------------|
|------------------------------------------------|
|---------9-5-7-4-5---7-7-5-7-9-10-9-9-12-9------|
|-7-7-5-7-----------5-----------------------10-9-|
|------------------------------------------------|

|------------------------------------------------|
|------------------------------------------------|
|------------------------------------------------|
|---------9-5-7-4-5---7-7-5-7-9-10-9-9-12-9------|
|-7-7-5-7-----------5-----------------------9-5--|
|------------------------------------------------|

Then the Rhythm guitar during the solo is acoustic. I'll just tab that part.
|------------------------------------------------|
|------------------------------------------------|
|------------------------------------------------|
|---------9-5-7-4-5---7-7-5-7-9-10-9-9-12-9------|
|-7-7-5-7-----------5-----------------------10-9-|
|------------------------------------------------|

|------------------------------------------------|
|------------------------------------------------|
|------------------------------------------------|
|---------9-5-7-4-5---7-7-5-7-9-10-9-9-12-9------|
|-7-7-5-7-----------5-----------------------10-9-|
|------------------------------------------------|

|------------------------------------------------|
|------------------------------------------------|
|------------------------------------------------|
|---------9-5-7-4-5---7-7-5-7-9-10-9-9-12-9------|
|-7-7-5-7-----------5-----------------------10-9-|
|------------------------------------------------|

|------------------------------------------------|
|------------------------------------------------|
|------------------------------------------------|
|---------9-5-7-4-5---7-7-5-7-9-10-9-9-12-9------|
|-7-7-5-7-----------5-----------------------10-9-|
|------------------------------------------------|

|---------------------------------------------|
|---------------------------------------------|
|-9-9-7-9---9-9-7-9---9-9-7-9---9-9-7-9-9--10-|
|-9-9-7-9---9-9-7-9---9-9-7-9---9-9-7-9-9--10-|
|-7-7-5-7---7-7-5-7---7-7-5-7---7-7-5-7-7--8--|
|---------------------------------------------|

|------------------------------------------------------|
|------------------------------------------------------|
|------------------------------------------------------|
|---------11-7-9-6-7-6-9-9-7-9-11-12-11-11-14-11-------|
|-9-9-7-9----------------------------------------12-11-|
|------------------------------------------------------|
x4

|-----|
|-----|
|-----|
|-----|
|-9-8-|
|-----|

|-------------------------------------------------------------------------|
|-------------------------------------------------------------------------|
|---7---7---7-----------7---7--7-7-12----7---7---7-----------7---7--7-7-4-|
|---6---6---6-----------6---6--7-7-12----6---6---6-----------6---6--7-7-4-|
|---7---7---7-------5---7---7--5-5-10----7---7---7-------5---7---7--5-5-2-|
|-0---0---0---0-6h7---0---0-------------0---0---0---0-6h7---0---0---------|
x3

|-------------------------------------|
|-------------------------------------|
|-9-------------9------------------9/-|
|-9-------------9------------------9/-|
|-7-5---------5-7-5---/10~---------7/-|
|-----7--3-/7-------7-----------------|

The end. E-mail me for questions.
Tap to rate this tab
 
# A B C D E F G H I J K L M N O P Q R S T U V W X Y Z