Song name
# A B C D E F G H I J K L M N O P Q R S T U V W X Y Z

Astra Kid - Bleiben Gehen chords

Highlighted       Show chord diagrams
-----------------------------------------------------------------------------
BLEIBEN/GEHEN.DE - Astra Kid
-----------------------------------------------------------------------------
e-mail: sonator.booking@googlemail.com

INTRO:  e---------------------------------------------------|
        B---------------------------------------------------|
        G-8--8--8--8---8--8--8--8----9-9-9---8--9--8--9--8--|
        D-9--9--9--9---11-11-11-11---9-9-9---9--9--9--9--9--|
        A---------------------------------------------------|
        E---------------------------------------------------|

        E---------------------------------------------------|
        B---------------------------------------------------|
        G-8--8--8--8---8--8--8--8----9----------------------|
        D-9--9--9--9---11-11-11-11---9----------------------|
        A---------------------------------------------------|
        E---------------------------------------------------| 

INTRO: H  C# E  E  (3x)   F#

(riff variation with a Eb bass tone at the E chord )
 
 
H   C#     E
Mir blutet das Herz ich hab euch verlassen
H      C#         E
Es ist aus und vorbei
H      C#      E         
Nichts wird so sein wie es mal war
H   C#       E
Ich hab euch gern

   F#           G#m          H           F#
Es gab zwar oft Streit, aber das muss es sein

H  C#    E
Ich will bleiben und muss doch gehen
H      C#        E
Keiner wird`s verstehn
H  C#    E
Ich will bleiben, doch das geht nicht
H      C#        E
Ihr vermisst mich
H   C#   E                    F#     
Ich will bleiben und muss oft gehen

H        C#      E                    
Manchmal war ich böse
               H               C#        E
Ich hatte zwar recht, trotzdem tut`s mir leid
         F#        G#m         H           F#
Doch ich habe euch gern und da gibt es mal Streit
    E         H          G#m    F#
Ich hoffe ich kehre bald wieder zurück

CHORUS: (repeat)

SOLO: (plays like the Intro)
       then F#  A 

CHORUS: (repeat)

C  D     F
Ich will bleiben und muss doch gehen
C      D         F
Keiner wird`s verstehn
C  D     F                      G
Ich will bleiben, doch das geht nicht
C  D     F
Ich will bleiben
C  D     F                     C
Ich will bleiben und muss doch gehen
C  D     F       G
Ich will bleiben 

LAST CHORD: C
Tap to rate this tab
# A B C D E F G H I J K L M N O P Q R S T U V W X Y Z