Song name
# A B C D E F G H I J K L M N O P Q R S T U V W X Y Z

Astrisk Scratchy - I Think I Found Her tab

Hello all you Scratchy Astrisk fans out there,this is Ben Newton for the band and I do play lead Guitar so 
know what im talking about here.
I am gonna post the song "I think I found Her" for you people so here it goes:

INTRO:

E-----------------------------------------------------------------------------|
B-----------------------------------------------------------------------------|
G---------0--------0--------0---------0--------0--------0---------0--------0--|
D------0--------0--------2---------2--------0--------0---------2--------2-----|
A---2--------2--------0---------0--------2--------2---------0--------0--------|
E-----------------------------------------------------------------------------|

MAIN RIFF:

E-----------------------------------------------------------------|
B-----------------------------------------------------------------|
G-----------------------------------------------------------------|
D-----------------------------------------------------------------|
A-5-5-5-5-5-5-5-5-7-7-7-7-7-7-7-7-9-9-9-9-9-9-9-9-7-7-7-7-7-7-7-7-|
E-5-5-5-5-5-5-5-5-7-7-7-7-7-7-7-7-9-9-9-9-9-9-9-9-7-7-7-7-7-7-7-7-|Play The Riff 6x

Yeah,This pretty easy but our band just started so it will get more complicated.
If you have any questions or comments or just want to,you can e-mail me at TheAstrisk1@aol.com
If you have AOL,feel free to send me an Instant Message as well.

Ben
Tap to rate this tab
# A B C D E F G H I J K L M N O P Q R S T U V W X Y Z