Song name
# A B C D E F G H I J K L M N O P Q R S T U V W X Y Z

Astronautalis - Measure The Globe tab

I know this isn't 100%, I'm not sure but I'm leaning toward the tuning. Any suggestions 
would be greatly appreciated!

Artist: Astronautalis
Song: Measure the Globe
Album: This Is Our Science
Tuning: Standard

Reference video: http://www.youtube.com/watch?v=xREgc5a0HrE

Intro

e |-0--1---0---0------------|
B |-1--3---1---0------------|
G |-2--2---0---0------------|
D |-3--0---2---0------------|
A |-0--0---3---2------------|
E |-0--x---0---3------------|

Verse 1

e |-0--1---0---0------------|
B |-1--3---1---0------------|
G |-2--2---0---0------------|
D |-3--0---2---0------------|
A |-0--0---3---2------------|
E |-0--x---0---3------------|

Sitting on a futon mat in a squat in Darmstadt
Kevin Seconds said to me in passing
"Age never meant shit to me. It's all about heart and stupidity."
I thought that there's no better way to live

We were on the steps in Borno
When she bit my lip and choked my throat
A hi-ball glass shattered above our heads
It seemed her lover listened through the walls
While we were kissing, arm in arm
I left and spent the night alone instead

Chorus

e |-0--0--0---0--0----|
B |-1--0--1---1--0----|
G |-2--0--0---2--0----|
D |-3--0--2---2--2----|
A |-0--2--3---0--2----|
E |-0--3--0---0--0----|

I couldn't tell you dear, which one whispers in my ear
The Devil or St. Andrew, but I know its time to go

e |-0--0--0---0--0---0---1--x---|
B |-1--0--1---1--0---1---1--1---|
G |-2--0--0---2--0---0---2--1---|
D |-3--0--2---2--2---2---3--1---|
A |-0--2--3---0--2---2---3--x---|
E |-0--3--0---0--0---3---1--1---|



I'm sure you've got a great theory
If I'm hunting something or its haunting me
I know there ain't no right way to measure the globe
Oh no, oh no

Interlude

e |-0--0-------0--1---------|
B |-1--1-------0--3---------|
G |-0--2--(x2)-0--2---------|
D |-2--3-------0--0---------|
A |-3--0-------2--0---------|
E |-0--0-------3--x---------|

Verse 2

e |--------0-----0------0-------------0-------0-----0----------|
B |-----1----1------1------1---------1---1------1------1-------|
G |---0--------0-------0-----0----2--------0-------0-----0-----|
D |----------------------------3-------------------------------|
A |-3----------------------------------------------------------|
E |------------------------------------------------------------|

e |--------0-----0------0---------------1-------1-----1---------|
B |-----0----0------0------0----------3---3------3------3-------|
G |---0--------0-------0-----0------2-------2-------2-----2-----|
D |------------------------------3------------------------------|
A |-------------------------------------------------------------|
E |--3----------------------------------------------------------|

I know what you dream of, I dream of it too
Of roads that are endless and rooms that are huge
Are these visions of heaven or nightmares I'm living?
All I know is I'm scared of the truth

And if the world could end very soon
And all we've accomplished is moot
I'll coat the carpet in gasoline
Strike our last match and leave
Before the whole house is consumed

e |-0--0----0--1---------|
B |-1--1----0--3---------|
G |-0--2----0--2---------|
D |-2--3----0--0---------|
A |-3--0----2--0---------|
E |-0--0----3--x---------|

So I'll cover my hand in tattoos
I'll kiss any woman that moves
There's no Lord to forgive me and physics is tricky
So all that I'm left with is you
So all that I'm left with is you
So all that I'm left with is you


Chorus

e |-0--0--0---0--0----|
B |-1--0--1---1--0----|
G |-2--0--0---2--0----|
D |-3--0--2---2--2----|
A |-0--2--3---0--2----|
E |-0--3--0---0--0----|

I couldn't tell you dear, which one whispers in my ear
The Devil or St. Andrew, but I know its time to go

e |-0--0--0---0--0---0---1--x---|
B |-1--0--1---1--0---1---1--1---|
G |-2--0--0---2--0---0---2--1---|
D |-3--0--2---2--2---2---3--1---|
A |-0--2--3---0--2---2---3--x---|
E |-0--3--0---0--0---3---1--1---|


I'm sure you've got a great theory
If I'm hunting something or its haunting me
I know there ain't no right way to measure the globe
Oh no, oh no
Tap to rate this tab
 
# A B C D E F G H I J K L M N O P Q R S T U V W X Y Z