Song name
# A B C D E F G H I J K L M N O P Q R S T U V W X Y Z

Aswell - La Sangre En Mis Manos tab

traigo esta rola de Aswell de la ciudad de la eterna primavera, medellin colombia

Teclado pasada a Guitarra

 e-----------------|-17-15-13-12--x4----------|
 B-15-13-11-10--X7-|-15-13-11-10--------------|
 G-----------------|--------------------------|
 D-----------------|--------------------------|
 A-----------------|--------------------------|
 D-----------------|--------------------------|

00:35
GT1
 e-------------------------------------------------------|
 B-151515181818171717131313-X3-151515181818171717/20-----|
 G-------------------------------------------------------|
 D-------------------------------------------------------|  X2
 A-------------------------------------------------------|
 D-------------------------------------------------------|
GT2
 e-------------------------------------------|
 B-------------------------------------------|
 G-------------------------------------------|
 D-X-X--X-X-X-X--X-X-X-x-55------------------|   X2
 A-X-X--X-X-X-X--X-X-X-x-33------------------|
 D-X-X--X-X-X-X--X-X-X-x-0-------------------|


VERSO
 e--------------------------------------------|
 B--------------------------------------------|
 G--------------------------------------------| X2
 D-7-------------------------3/---8-----------|
 A-5-------------------------3/---8-----------|
 D-0-------------------------3/---8-----------|
     un  poco  de  paz en mi soledad
	sera suficiente para el dolor
	acaso vendra la vida detras
	es una salida para el temor

PRECORO
 e-------------------------------------------|
 B-------------------------------------------|
 G-------------------------------------------|
 D-X-X--X-X-X-X--X-X-X-X-X-------------------|
 A-X-X--X-X-X-X--X-X-X-X-X-------------------|
 D-X-X--X-X-X-X--X-X-X-X-X-------------------|
   segados al ver el mundo alreves
 e-----------------------------------------|
 B-----------------------------------------|
 G-----------------------------------------|
 D-X-X--X-X-X-X--X-X-X-X-X-----------------|
 A-X-X--X-X-X-X--X-X-X-X-X---03/5----------|
 D-X-X--X-X-X-X--X-X-X-X-X-----------------|
  todo se disuelve a mi alrededor


CORO:
 e----------------------|
 B--77---66-----11------|
 G--77---55-----10------|
 D-0----3/-----8--------| X2
 A-0----3/-----8--------|
 D-0----3/-----8--------|
    no siento maaaas (la sangre en mi cuerpooo)
    el tiempo yaaaaa (no tiene sentidoooo)

INTERMEDIO
GT1
 e-------------------------------------------------------|
 B-151515181818171717131313-X3-151515181818171717/20-----|
 G-------------------------------------------------------|
 D-------------------------------------------------------|
 A-------------------------------------------------------|
 D-------------------------------------------------------|
GT2
 e-------------------------------------------|
 B-------------------------------------------|
 G-------------------------------------------|
 D-X-X--X-X-X-X--X-X-X-X-X-------------------|
 A-X-X--X-X-X-X--X-X-X-X-X-------------------|
 D-X-X--X-X-X-X--X-X-X-X-X-------------------|

   (VERSO)
	el aire se va, no logro aguantar
	el peso en el pechoo
	no puedo escapar, no puedo ocultar
	la sangre en mis manoooos
  (PRECORO)
	talvez si podes, queriendo perder
	el miedo a borrar toda una ilusion

  (CORO)
	no siento maaaas (la sangre en mi cuerpooo)
	el tiempo yaaaaa (no tiene sentidoooo)

INTERMEDIO2
 e--------------------------------------------|------------------------|
 B--------------------------------------------|------------------------|
 G--------------------------------------------|------------------------|
 D-0-1-0-3-1-00-1-0-0-0-0--0-1-0-3-1-00-1-5---|-0-1-0-3-1-00-1-0-0-0-0-|
 A------------------0-0-0--0-1-0-3-1-00-1-3---|-0-1-0-3-1-00-1-0-0-0-0-|
 D------------------0-0-0--0-1-0-3-1-00-1-0---|-0-1-0-3-1-00-1-0-0-0-0-|
                    |PM.|                    		         |PM.|

 |-------------------|---------------|
 |-------------------|---------------|
 |-------------------|---------------|
 |0-1-0-3-1-00-1-5---|-0-1-0-3-1-0-0-|
 |0-1-0-3-1-00-1-3---|-0-1-0-3-1-0---|
 |0-1-0-3-1-00-1-0---|-0-1-0-3-1-0---|

  (CORO)
	no siento maaaas (la sangre en mi cuerpooo)
	el tiempo yaaaaa (no tiene sentidoooo)

 END
GT1
 e-------------------------------------------------------|
 B-151515181818171717131313-X3-151515181818171717/20-----|
 G-------------------------------------------------------|
 D-------------------------------------------------------|  X2
 A-------------------------------------------------------|
 D-------------------------------------------------------|
GT2
 e--------------------------------------------------|
 B--------------------------------------------------|
 G--------------------------------------------------|
 D-X-X--X-X-X-X--X-X-X-X-X-0......------------------|   X2
 A-X-X--X-X-X-X--X-X-X-X-X-0......------------------|
 D-X-X--X-X-X-X--X-X-X-X-X-0......------------------|


saludos a todos, espero que les guste..

  -Joan Cardona-
Tap to rate this tab
# A B C D E F G H I J K L M N O P Q R S T U V W X Y Z