Guitaretab - guitar tabs
Song name
# A B C D E F G H I J K L M N O P Q R S T U V W X Y Z

At First Light - Trip To Ireland - Jutland tab

Trip to Ireland
[Michael McGoldrick & John McSherry]

official website: http://www.atfirstlight.net/


|-----7-----7----------3----------0-------0-------0-----------|
|-----8-------8--------5-5------3-------3-------3-------------|
|-----9---9-----9------5------0-------0-------0---------2-0---|
|---9----------------5--------------------------------0-------|
|-7-----7----------3--------------------------------2---------|
|---------------------------2-------3~~~~~~~5-----------------|

|--------------------------------------------------------------------|
|---0-----------0-------0-------0-----------0-------0--------------0-|
|-------------2-------2-------2-----------2-------2--------------0---|
|-----------0-------0-------0-----------0-------0-------0------------|
|-------------------------2-------3-2-----------------2--------------|
|-0---0-2-3~~~~~~~5-------------------3~~~~~~~5-----------3-2-0------|
[ Tab from: http://www.guitaretab.com/a/at-first-light/175087.html ]
|-----------------------------------------0---0---0-------0------|
|-------0-----0---------------------------------0---3-0-3--------|
|-----0-----0---2-0-2-4-2-0-2---4-2-0-2-4------------------------|
|-----------------------------0---------2---2--------------------|
|-5~7-----7---------0---------------------------------------2----|
|-------------------------------------------------------------0--|

|-0-----0-2------------------------------------------------------|
|-----3-----3-0-------------0------------------------------------|
|---------------2-0-2-4-2-0-2---0-2-2-4-2-0-2-0------------------|
|-----------------------------0-----------------2-2---4-2-0-2----|
|---2-------0-------3-------2---------------0-------2------------|
|-----------------------------------3-------------------------0--|

Hm: x24432 !


part I     :
Em, D, Em  :
G, D, C, D : 4x


part II           :
Em, Am, Em, D, Em :
Hm, D, C          :
G, Am, Hm, Em     : 2x


part I     :
Em, D, Em  :
G, D, C, D : 4x


Hm, Em, Hm


part III     :
Em, Hm       :
Em           :
Em, Hm       :
Em... Hm, Em : 2x


part IV
C, Em, C, Em, Hm


Em, Hm, Em


part IV
C, Em, C, Em, Hm


Em, Hm, Em
Advertisement will be closed in 10 seconds