At Half-mast - The Longest Day This Year tab

The Longest Day This Year
At Half-Mast
Fathers And Sons

----------1--------1----|--------------------------|
------------------------|--------------------------|
------2-3---3-2----3--2-|-----2-3-2-------2-3-2----|
----0-----------0-------|---0-------0---0-------0--|
--3---------------------|-3-----------3------------|
------------------------|--------------------------|

Continue playing for a little while...
----------1--------1----|--------------------------|
------------------------|--------------------------|
------2-3---3-2----3--2-|-----2-3-2-------2-3-2----|
----0-----------0-------|---0-------0---0-------0--|
--3---------------------|-3-----------3------------|
------------------------|--------------------------|

http://www.myspace.com/athalfmasthc
Tap to rate this tab
 
# A B C D E F G H I J K L M N O P Q R S T U V W X Y Z