Guitaretab - guitar tabs
Song name
# A B C D E F G H I J K L M N O P Q R S T U V W X Y Z

At Sunrise - Time Wont Save Us tab

http://www.myspace.com/atsunriseuk
Artist: At Sunrise
Song: Time Won't Save Us
Album: Sapphires Mini-Album
Year: 2009
Hardcore // Metal
Tabbed by Matt



     E  S S E  E  E  E  E  E     E  E  E  Q    Q    E   
E||---------------------------|------------------------|
B||---------------------------|------------------------|
G||---------------------------|------------------------|
D||---------------------------|------------------------|
A||------------------------3--|--L-----3--5---------0--|
D||--5--0-0-3--0--3--5--0-----|-----0----------3-------|


  E  E   E  E  Q    S S E     E  E  E  Q    E  E  E   
---------------------------|-------------------------|
---------------------------|-------------------------|
---------------------------|-------------------------|
--------10--0--------------|-------------------------|
--3--7---------8--------8--|--L--7-----7-------7-----|
--------------------0-0----|--------0-------0-----0--|


  E  E  E  E  S S S S S S S S    S S S S S S S S S S S S S S S S  
------------------------------|----------------------------------|
------------------------------|----------------------------------|
------------------------------|----------------------------------|
-----3--2---------------------|----------------------------------|
--5--------3--7-7-7---7-7-7---|--7-7-7---7-7-7---8-8-8---8-8-8---|
------------------------------|----------------------------------|


                                   NH                         
  S S S S S S S S E  E  E  E       W                H         
------------------------------|------------------------------|
------------------------------|------------------------------|
------------------------------|------------------------------|
------------------0--0--0--0--|--<>5----------------L--------|
--8-8-8---8-8-8---0--0--0--0--|------------------------------|
------------------0--0--0--0--|------------------------------|


  E  E  E  E  E  E  E  E     E  E  E  E  E  E  E  E   
--------------------------|--------------------------|
--------------------------|--------------------------|
--------0--------0--------|--0--------0--------------|
-----4--------4--------3--|--------3-----0--0--0--3--|
--2--------2--------1-----|-----1--------0--0--0--3--|
--------------------------|--------------0--0--0--3--|


  E  S S E  E  E  E  E  E     E  S S E  E  E  E  E  E   
---------------------------|---------------------------|
---------------------------|---------------------------|
---------------------------|---------------------------|
--L--0-0-0--0--------0--3--|--L--0-0-0--0--------0--0--|
--L--0-0-0--0--7--8--0--3--|--L--0-0-0--0--7--8--0--0--|
--L--0-0-0--0--------0--3--|--L--0-0-0--0--------0--0--|


  E  E  E  E  E  E  E  E     E  E  E  E  E  E  E  E   
--------------------------|--------------------------|
--------------------------|--------------------------|
--------0--------0--------|--0--------0--------------|
-----4--------4--------3--|--------3-----0--0--0--3--|
--2--------2--------1-----|-----1--------0--0--0--3--|
--------------------------|--------------0--0--0--3--|


  E  S S E  E  E  E  E  E     E  S S E  E  E  E  E  E   
---------------------------|---------------------------|
---------------------------|---------------------------|
---------------------------|---------------------------|
--L--0-0-0--0--------0--3--|--L--0-0-0--0--------0--0--|
--L--0-0-0--0--7--8--0--3--|--L--0-0-0--0--7--8--0--0--|
--L--0-0-0--0--------0--3--|--L--0-0-0--0--------0--0--|


  E  E  E  E  E  E  E  E     E  E  E  E  E  E  E  E   
--------------------------|--------------------------|
--------------------------|--------------------------|
--------0--------0--------|--0--------0--------------|
-----4--------4--------3--|--------3-----0--0--0--0--|
--2--------2--------1-----|-----1--------0--0--0--0--|
--------------------------|--------------0--0--0--0--|


   E   E   E   E   E   E   E   E      E   E   E   E  E  E  E  E   
----------------------------------|------------------------------|
----------------------------------|------------------------------|
----------------------------------|------------------------------|
--10--10--10--10--10--10--10--10--|--10--10--10--10--0--0--0--0--|
---8---8---8---8---8---8---8---8--|---8---8---8---8--0--0--0--0--|
---8---8---8---8---8---8---8---8--|---8---8---8---8--0--0--0--0--|


   E   E   E   E   E   E   E   E      E   E   E   E  E  E  E  E   
----------------------------------|------------------------------|
----------------------------------|------------------------------|
----------------------------------|------------------------------|
--10--10--10--10--10--10--10--10--|--10--10--10--10--0--0--0--0--|
---8---8---8---8---8---8---8---8--|---8---8---8---8--0--0--0--0--|
---8---8---8---8---8---8---8---8--|---8---8---8---8--0--0--0--0--|


  E  E  E  E  E  E  E  E     E  E  E  E  E  E  E  E   
--------------------------|--------------------------|
--------------------------|--------------------------|
--9--9--9--9--9--9--9--9--|--9--9--9--9--------------|
--------------------------|--------------0--0--0--0--|
--7--7--7--7--7--7--7--7--|--7--7--7--7--0--0--0--0--|
--------------------------|--------------0--0--0--0--|


  E  E  E  E  E  E  E  E     E  E  E  E  E  E  E  E   
--------------------------|--------------------------|
--------------------------|--------------------------|
--9--9--9--9--9--9--9--9--|--9--9--9--9--------------|
--------------------------|--------------0--0--0--0--|
--7--7--7--7--7--7--7--7--|--7--7--7--7--0--0--0--0--|
--------------------------|--------------0--0--0--0--|


   E   E   E   E   E   E   E   E      E   E   E   E  E  E  E  E   
----------------------------------|------------------------------|
----------------------------------|------------------------------|
----------------------------------|------------------------------|
--10--10--10--10--10--10--10--10--|--10--10--10--10--0--0--0--0--|
---8---8---8---8---8---8---8---8--|---8---8---8---8--0--0--0--0--|
---8---8---8---8---8---8---8---8--|---8---8---8---8--0--0--0--0--|


   E   E   E   E   E   E   E   E      E   E   E   E  E  E  E  E   
----------------------------------|------------------------------|
----------------------------------|------------------------------|
----------------------------------|------------------------------|
--10--10--10--10--10--10--10--10--|--10--10--10--10--0--0--0--0--|
---8---8---8---8---8---8---8---8--|---8---8---8---8--0--0--0--0--|
---8---8---8---8---8---8---8---8--|---8---8---8---8--0--0--0--0--|


  E  E  E  E  E  E  E  E     E  E  E  E  E  E  E  E   
--------------------------|--------------------------|
--------------------------|--------------------------|
--9--9--9--9--9--9--9--9--|--9--9--9--9--------------|
--------------------------|--------------0--0--0--0--|
--7--7--7--7--7--7--7--7--|--7--7--7--7--0--0--0--0--|
--------------------------|--------------0--0--0--0--|


   E   E   E   E   E   E   E   E      E   E   E   E   E  E   E   E   
----------------------------------|-------------------------12------|
----------------------------------|----------------------8----------|
--12--12--12--12--12--12--12--12--|--12--12--12--12--10---------10--|
----------------------------------|---------------------------------|
--10--10--10--10--10--10--10--10--|--10--10--10--10-----------------|
----------------------------------|---------------------------------|


  E  E  E   E  E   E   E     E  E  E   E  E   E   E   
------------------12------|------------------12------|
---------------8----------|---------------8----------|
-----------10---------10--|-----------10---------10--|
--0--0--0-----------------|--0--0--0-----------------|
--0--0--0-----------------|--0--0--0-----------------|
--0--0--0-----------------|--0--0--0-----------------|


  E  E  E   E  E   E   E     E  E  E   E  E   E   E   E   E   E   
------------------12------|------------------12------------------|
---------------8----------|---------------8----------------------|
-----------10---------10--|-----------10---------10s--5p--0h--2--|
--0--0--0-----------------|--0--0--0-----------------------------|
--0--0--0-----------------|--0--0--0-----------------------------|
--0--0--0-----------------|--0--0--0-----------------------------|


  E  E  E   E  E   E   E     E  E  E   E  E   E   E   
------------------12------|------------------12------|
---------------8----------|---------------8----------|
-----------10---------10--|-----------10---------10--|
--8--8--8-----------------|--8--8--8-----------------|
--8--8--8-----------------|--8--8--8-----------------|
--8--8--8-----------------|--8--8--8-----------------|


  E  E  E   E  E   E   E     E  E  E   E  E   E   E   E   E   E   
------------------12------|------------------12------------------|
---------------8----------|---------------8----------------------|
-----------10---------10--|-----------10---------10s--5p--0h--2--|
--8--8--8-----------------|--8--8--8-----------------------------|
--8--8--8-----------------|--8--8--8-----------------------------|
--8--8--8-----------------|--8--8--8-----------------------------|


  E  E  E   E  E   E   E     E  E  E   E  E   E   E   
------------------12------|------------------12------|
---------------8----------|---------------8----------|
-----------10---------10--|-----------10---------10--|
--0--0--0-----------------|--0--0--0-----------------|
--0--0--0-----------------|--0--0--0-----------------|
--0--0--0-----------------|--0--0--0-----------------|


  E  E  E   E  E   E   E     E  E  E   E  E   E   E   E   E   E   
------------------12------|------------------12------------------|
---------------8----------|---------------8----------------------|
-----------10---------10--|-----------10---------10s--5p--0h--2--|
--0--0--0-----------------|--0--0--0-----------------------------|
--0--0--0-----------------|--0--0--0-----------------------------|
--0--0--0-----------------|--0--0--0-----------------------------|


  E  E  E   E  E   E   E     E  E  E   E  E   E   E   
------------------12------|------------------12------|
---------------8----------|---------------8----------|
-----------10---------10--|-----------10---------10--|
--8--8--8-----------------|--8--8--8-----------------|
--8--8--8-----------------|--8--8--8-----------------|
--8--8--8-----------------|--8--8--8-----------------|


  E  E  E   E  E   E   E     E  E  E   E  E   E   E   E   E   E   
------------------12------|------------------12------------------|
---------------8----------|---------------8----------------------|
-----------10---------10--|-----------10---------10s--5p--0h--2--|
--8--8--8-----------------|--8--8--8-----------------------------|
--8--8--8-----------------|--8--8--8-----------------------------|
--8--8--8-----------------|--8--8--8-----------------------------|


  E  E  E   E  E   E   E     E  E  E   E  E   E   E   
------------------12------|------------------12------|
---------------8----------|---------------8----------|
-----------10---------10--|-----------10---------10--|
--0--0--0-----------------|--0--0--0-----------------|
--0--0--0-----------------|--0--0--0-----------------|
--0--0--0-----------------|--0--0--0-----------------|


  E  E  E   E  E   E   E     E  E  E   E  E   E   E   E   E   E   
------------------12------|------------------12------------------|
---------------8----------|---------------8----------------------|
-----------10---------10--|-----------10---------10s--5p--0h--2--|
--0--0--0-----------------|--0--0--0-----------------------------|
--0--0--0-----------------|--0--0--0-----------------------------|
--0--0--0-----------------|--0--0--0-----------------------------|


  E  E  E   E  E   E   E     E  E  E   E  E   E   E   
------------------12------|------------------12------|
---------------8----------|---------------8----------|
-----------10---------10--|-----------10---------10--|
--8--8--8-----------------|--8--8--8-----------------|
--8--8--8-----------------|--8--8--8-----------------|
--8--8--8-----------------|--8--8--8-----------------|


  E  E  E   E  E   E   E     E  E  E   E  E   E   E   E   E   E   
------------------12------|------------------12------------------|
---------------8----------|---------------8----------------------|
-----------10---------10--|-----------10---------10s--5p--0h--2--|
--8--8--8-----------------|--8--8--8-----------------------------|
--8--8--8-----------------|--8--8--8-----------------------------|
--8--8--8-----------------|--8--8--8-----------------------------|


  PM          PM PM PM                                            
  H        E  S  S  Q       W                   W                 
-------------------------|-------------------|-------------------|
-------------------------|-------------------|-------------------|
-------------------------|-------------------|-------------------|
--0-----------0--0--0----|-------------------|-------------------|
--0-----------0--0--0----|-------------------|-------------------|
--0-----------0--0--0----|-------------------|-------------------|


  W                   E  E  E  E  H           E  E  E  E  E   E   E  E   
-------------------|-----------0--L--------|-----------0-------------0--|
-------------------|--------6--------------|--------6------------10-----|
-------------------|-----7-----------------|-----7-----------10---------|
-------------------|-----------------------|----------------------------|
-------------------|-----------------------|----------------------------|
-------------------|-----------------------|----------------------------|


  E   E  E  E  H           E   E  E  E  E   E  E  E     E  E  E  E  H         
------------0--L--------|------------0------------0--|-----------0--L--------|
---------8--------------|---------8------------8-----|--------6--------------|
-----10-----------------|-----10-----------10--------|-----7-----------------|
------------------------|----------------------------|-----------------------|
------------------------|----------------------------|-----------------------|
------------------------|----------------------------|-----------------------|


  E  E  E  E  E   E   E  E     E   E  E  E  H         
-----------0-------------0--|------------0--L--------|
--------6------------10-----|---------8--------------|
-----7-----------10---------|-----10-----------------|
----------------------------|------------------------|
----------------------------|------------------------|
----------------------------|------------------------|


  E   E  E  E  E   E  E  E     E  E  E  E  H         
------------0------------0--|-----------0--L--------|
---------8------------8-----|--------6--------------|
-----10-----------10--------|-----7-----------------|
----------------------------|-----------------------|
----------------------------|-----------------------|
----------------------------|-----------------------|


  E  E  E  E  E   E   E  E     E   E  E  E  H         
-----------0-------------0--|------------0--L--------|
--------6------------10-----|---------8--------------|
-----7-----------10---------|-----10-----------------|
----------------------------|------------------------|
----------------------------|------------------------|
----------------------------|------------------------|


  E   E  E  E  E   E  E  E     E  E  E  E  H         
------------0------------0--|-----------0--L--------|
---------8------------8-----|--------6--------------|
-----10-----------10--------|-----7-----------------|
----------------------------|-----------------------|
----------------------------|-----------------------|
----------------------------|-----------------------|


  E  E  E  E  E   E   E  E     E   E  E  E  H         
-----------0-------------0--|------------0--L--------|
--------6------------10-----|---------8--------------|
-----7-----------10---------|-----10-----------------|
----------------------------|------------------------|
----------------------------|------------------------|
----------------------------|------------------------|


                                T      T      T          T   
  E   E  E  E  E   E  E  E      E  E   E  E   E  E   E   E   
------------0------------0--|-------------------------------|
---------8------------8-----|---------------------------13--|
-----10-----------10--------|----------------12--5s--9------|
----------------------------|---------12--7-----------------|
----------------------------|--12--5------------------------|
----------------------------|-------------------------------|


           T           T              T      T      T          T   
   E   E   E  E    E   E   E   E      E  E   E  E   E  E   E   E   
----------------------------------|-------------------------------|
--10p--8--------------------------|---------------------------13--|
----------12--9s--10--------------|----------------12--5s--9------|
----------------------12--10s--5--|---------12--7-----------------|
----------------------------------|--12--5------------------------|
----------------------------------|-------------------------------|


           T           T              T      T      T          T   
   E   E   E  E    E   E   E   E      E  E   E  E   E  E   E   E   
----------------------------------|-------------------------------|
--10p--8--------------------------|---------------------------13--|
----------12--9s--10--------------|----------------12--5s--9------|
----------------------12--10s--5--|---------12--7-----------------|
----------------------------------|--12--5------------------------|
----------------------------------|-------------------------------|


           T           T              T      T      T          T   
   E   E   E  E    E   E   E   E      E  E   E  E   E  E   E   E   
----------------------------------|-------------------------------|
--10p--8--------------------------|---------------------------13--|
----------12--9s--10--------------|----------------12--5s--9------|
----------------------12--10s--5--|---------12--7-----------------|
----------------------------------|--12--5------------------------|
----------------------------------|-------------------------------|

[ Tab from: http://www.guitaretab.com/a/at-sunrise/191365.html ]
           T           T              T      T      T          T   
   E   E   E  E    E   E   E   E      E  E   E  E   E  E   E   E   
----------------------------------|-------------------------------|
--10p--8--------------------------|---------------------------13--|
----------12--9s--10--------------|----------------12--5s--9------|
----------------------12--10s--5--|---------12--7-----------------|
----------------------------------|--12--5------------------------|
----------------------------------|-------------------------------|


           T           T             PM PM PM      PM PM PM                    
   E   E   E  E    E   E   E   E     E  E  E  Q    E  E  E  E     E  E  E  E   
----------------------------------|----------------------------|--------------|
--10p--8--------------------------|-----------6-------------6--|--------------|
----------12--9s--10--------------|-----------9-------------9--|--------------|
----------------------12--10s--5--|--0--0--0-------0--0--0-----|-----------7--|
----------------------------------|--0--0--0-------0--0--0-----|--------5-----|
----------------------------------|--0--0--0-------0--0--0-----|--0--3--------|


  PM PM PM      PM PM PM                                
  E  E  E  Q    E  E  E  E     E  E  E  E  E  E  E  E   
----------------------------|--------------------------|
-----------6-------------6--|--------------------------|
-----------9-------------9--|--------------------------|
--0--0--0-------0--0--0-----|-----------7-----------5--|
--0--0--0-------0--0--0-----|--------5-----------4-----|
--0--0--0-------0--0--0-----|--0--3--------0--2--------|


  PM PM PM      PM PM PM                      PM PM PM      PM PM PM     
  E  E  E  Q    E  E  E  E     E  E  E  E     E  E  E  Q    E  E  E  E   
----------------------------|--------------|----------------------------|
-----------6-------------6--|--------------|-----------6-------------6--|
-----------9-------------9--|--------------|-----------9-------------9--|
--0--0--0-------0--0--0-----|-----------7--|--0--0--0-------0--0--0-----|
--0--0--0-------0--0--0-----|--------5-----|--0--0--0-------0--0--0-----|
--0--0--0-------0--0--0-----|--0--3--------|--0--0--0-------0--0--0-----|


  E  E  E  E  E  E  E  E     E   E   E   E  E  E  E  E   
--------------------------|-----------------------------|
--------------------------|-----------------------------|
--------------------------|-----------------------------|
-----------7-----------5--|---------12------------8-----|
--------5-----------4-----|-----10------10-----7-----7--|
--0--3--------0--2--------|--8--------------5-----------|


                                  PM PM PM PM   NH                            
   E   E   E   E  E  E   E  E     E  E  E  E    H           W                 
-------------------------------|-------------------------|-------------------|
-------------------------------|-------------------------|-------------------|
-------------------------------|-------------------------|-------------------|
----------14------------10-----|--0--0--0--0--<>7--------|--L----------------|
------12------12-----8------8--|--0--0--0--0-------------|-------------------|
--10--------------7------------|--0--0--0--0-------------|-------------------|


  E  E  E  E  E  E  E  E     E  E  E  E  E  E  E  E   
--------------------------|--------------------------|
--------------------------|--------------------------|
--------0--------0--------|--0--------0--------------|
-----4--------4--------3--|--------3-----0--0--0--3--|
--2--------2--------1-----|-----1--------0--0--0--3--|
--------------------------|--------------0--0--0--3--|


  E  S S E  E  E  E  E  E     E  S S E  E  E  E  E  E   
---------------------------|---------------------------|
---------------------------|---------------------------|
---------------------------|---------------------------|
--L--0-0-0--0--------0--3--|--L--0-0-0--0--------0--0--|
--L--0-0-0--0--7--8--0--3--|--L--0-0-0--0--7--8--0--0--|
--L--0-0-0--0--------0--3--|--L--0-0-0--0--------0--0--|


  E  E  E  E  E  E  E  E     E  E  E  E  E  E  E  E   
--------------------------|--------------------------|
--------------------------|--------------------------|
--------0--------0--------|--0--------0--------------|
-----4--------4--------3--|--------3-----0--0--0--3--|
--2--------2--------1-----|-----1--------0--0--0--3--|
--------------------------|--------------0--0--0--3--|


  E  S S E  E  E  E  E  E     E  S S E  E  E  E  E  E   
---------------------------|---------------------------|
---------------------------|---------------------------|
---------------------------|---------------------------|
--L--0-0-0--0--------0--3--|--L--0-0-0--0--------0--0--|
--L--0-0-0--0--7--8--0--3--|--L--0-0-0--0--7--8--0--0--|
--L--0-0-0--0--------0--3--|--L--0-0-0--0--------0--0--|


  E  E  E  E  E  E  E  E     E  E  E  E  E  E  E  E   
--------------------------|--------------------------|
--------------------------|--------------------------|
--------0--------0--------|--0--------0--------------|
-----4--------4--------3--|--------3-----0--0--0--0--|
--2--------2--------1-----|-----1--------0--0--0--0--|
--------------------------|--------------0--0--0--0--|


   E   E   E   E   E   E   E   E      E   E   E   E  E  E  E  E   
----------------------------------|------------------------------|
----------------------------------|------------------------------|
----------------------------------|------------------------------|
--10--10--10--10--10--10--10--10--|--10--10--10--10--0--0--0--0--|
---8---8---8---8---8---8---8---8--|---8---8---8---8--0--0--0--0--|
---8---8---8---8---8---8---8---8--|---8---8---8---8--0--0--0--0--|


   E   E   E   E   E   E   E   E      E   E   E   E  E  E  E  E   
----------------------------------|------------------------------|
----------------------------------|------------------------------|
----------------------------------|------------------------------|
--10--10--10--10--10--10--10--10--|--10--10--10--10--0--0--0--0--|
---8---8---8---8---8---8---8---8--|---8---8---8---8--0--0--0--0--|
---8---8---8---8---8---8---8---8--|---8---8---8---8--0--0--0--0--|


  E  E  E  E  E  E  E  E     E  E  E  E  E  E  E  E   
--------------------------|--------------------------|
--------------------------|--------------------------|
--9--9--9--9--9--9--9--9--|--9--9--9--9--------------|
--------------------------|--------------0--0--0--0--|
--7--7--7--7--7--7--7--7--|--7--7--7--7--0--0--0--0--|
--------------------------|--------------0--0--0--0--|


  E  E  E  E  E  E  E  E     E  E  E  E  E  E  E  E   
--------------------------|--------------------------|
--------------------------|--------------------------|
--9--9--9--9--9--9--9--9--|--9--9--9--9--------------|
--------------------------|--------------0--0--0--0--|
--7--7--7--7--7--7--7--7--|--7--7--7--7--0--0--0--0--|
--------------------------|--------------0--0--0--0--|


   E   E   E   E   E   E   E   E      E   E   E   E  E  E  E  E   
----------------------------------|------------------------------|
----------------------------------|------------------------------|
----------------------------------|------------------------------|
--10--10--10--10--10--10--10--10--|--10--10--10--10--0--0--0--0--|
---8---8---8---8---8---8---8---8--|---8---8---8---8--0--0--0--0--|
---8---8---8---8---8---8---8---8--|---8---8---8---8--0--0--0--0--|


   E   E   E   E   E   E   E   E      E   E   E   E  E  E  E  E   
----------------------------------|------------------------------|
----------------------------------|------------------------------|
----------------------------------|------------------------------|
--10--10--10--10--10--10--10--10--|--10--10--10--10--0--0--0--0--|
---8---8---8---8---8---8---8---8--|---8---8---8---8--0--0--0--0--|
---8---8---8---8---8---8---8---8--|---8---8---8---8--0--0--0--0--|


  E  E  E  E  E  E  E  E     E  E  E  E  E  E  E  E   
--------------------------|--------------------------|
--------------------------|--------------------------|
--9--9--9--9--9--9--9--9--|--9--9--9--9--------------|
--------------------------|--------------0--0--0--0--|
--7--7--7--7--7--7--7--7--|--7--7--7--7--0--0--0--0--|
--------------------------|--------------0--0--0--0--|


   E   E   E   E   E   E   E   E      E   E   E   E   E  E  E   E   
----------------------------------|--------------------------------|
----------------------------------|--------------------------------|
--12--12--12--12--12--12--12--12--|--12--12--12--12----------------|
----------------------------------|------------------10--8--7--10--|
--10--10--10--10--10--10--10--10--|--10--10--10--10----------------|
----------------------------------|--------------------------------|


  E  E  E   E  E  E   E     E  E  E   E  E  E   E     E  E  E   E  E  E   E   
-------------------------|-------------------------|-------------------------|
-------------------------|-------------------------|-------------------------|
-------------------------|-------------------------|-------------------------|
--0--0--0--10--8--7--10--|--0--0--0--10--8--7--10--|--0--0--0--10--8--7--10--|
--0--0--0----------------|--0--0--0----------------|--0--0--0----------------|
--0--0--0----------------|--0--0--0----------------|--0--0--0----------------|


  E  E  E   E  E  E   E  E  E   E     E  E  E   E  E  E   E   
-----------------------------------|-------------------------|
-----------------------------------|-------------------------|
-----------------------------------|-------------------------|
--0--0--0--10--8--7--10--8--7------|--8--8--8--10--8--7--10--|
--0--0--0----------------------10--|--8--8--8----------------|
--0--0--0--------------------------|--8--8--8----------------|


  E  E  E   E  E  E   E     E  E  E   E  E  E   E   
-------------------------|-------------------------|
-------------------------|-------------------------|
-------------------------|-------------------------|
--8--8--8--10--8--7--10--|--8--8--8--10--8--7--10--|
--8--8--8----------------|--8--8--8----------------|
--8--8--8----------------|--8--8--8----------------|


  E  E  E   E  E  E   E  E  E   E     E  E  E   E  E  E   E   
-----------------------------------|-------------------------|
-----------------------------------|-------------------------|
-----------------------------------|-------------------------|
--8--8--8--10--8--7--10--8--7------|--0--0--0--10--8--7--10--|
--8--8--8----------------------10--|--0--0--0----------------|
--8--8--8--------------------------|--0--0--0----------------|


  E  E  E   E  E  E   E     E  E  E   E  E  E   E   
-------------------------|-------------------------|
-------------------------|-------------------------|
-------------------------|-------------------------|
--0--0--0--10--8--7--10--|--0--0--0--10--8--7--10--|
--0--0--0----------------|--0--0--0----------------|
--0--0--0----------------|--0--0--0----------------|


  E  E  E   E  E  E   E  E  E   E     E  E  E   E  E  E   E   
-----------------------------------|-------------------------|
-----------------------------------|-------------------------|
-----------------------------------|-------------------------|
--0--0--0--10--8--7--10--8--7------|--8--8--8--10--8--7--10--|
--0--0--0----------------------10--|--8--8--8----------------|
--0--0--0--------------------------|--8--8--8----------------|


  E  E  E   E  E  E   E     E  E  E   E  E  E   E   
-------------------------|-------------------------|
-------------------------|-------------------------|
-------------------------|-------------------------|
--8--8--8--10--8--7--10--|--8--8--8--10--8--7--10--|
--8--8--8----------------|--8--8--8----------------|
--8--8--8----------------|--8--8--8----------------|


  E  E  E   E  E  E   E  E  E   E     E  E  E   E  E  E   E   
-----------------------------------|-------------------------|
-----------------------------------|-------------------------|
-----------------------------------|-------------------------|
--8--8--8--10--8--7--10--8--7------|--0--0--0--10--8--7--10--|
--8--8--8----------------------10--|--0--0--0----------------|
--8--8--8--------------------------|--0--0--0----------------|


  E  E  E   E  E  E   E     E  E  E   E  E  E   E   
-------------------------|-------------------------|
-------------------------|-------------------------|
-------------------------|-------------------------|
--0--0--0--10--8--7--10--|--0--0--0--10--8--7--10--|
--0--0--0----------------|--0--0--0----------------|
--0--0--0----------------|--0--0--0----------------|


  E  E  E   E  E  E   E  E  E   E     E  E  E   E  E  E   E   
-----------------------------------|-------------------------|
-----------------------------------|-------------------------|
-----------------------------------|-------------------------|
--0--0--0--10--8--7--10--8--7------|--8--8--8--10--8--7--10--|
--0--0--0----------------------10--|--8--8--8----------------|
--0--0--0--------------------------|--8--8--8----------------|


  E  E  E   E  E  E   E     E  E  E   E  E  E   E   
-------------------------|-------------------------|
-------------------------|-------------------------|
-------------------------|-------------------------|
--8--8--8--10--8--7--10--|--8--8--8--10--8--7--10--|
--8--8--8----------------|--8--8--8----------------|
--8--8--8----------------|--8--8--8----------------|


                                      PM PM PM PM PM PM    PM PM PM    
  E  E  E   E  E  E   E  E  E   E     S  S  E  S  S  E  E  S  S  Q     
-----------------------------------|----------------------------------|
-----------------------------------|----------------------------------|
-----------------------------------|----------------------------------|
--8--8--8--10--8--7--10--8--7------|--0--0--0--0--0--0-----0--0--0----|
--8--8--8----------------------10--|--0--0--0--0--0--0-----0--0--0----|
--8--8--8--------------------------|--0--0--0--0--0--0-----0--0--0----|


  PM PM PM PM PM PM    PM PM PM      PM PM PM PM PM PM    PM PM PM    
  S  S  E  S  S  E  E  S  S  Q       S  S  E  S  S  E  E  S  S  Q     
----------------------------------|----------------------------------|
----------------------------------|----------------------------------|
----------------------------------|----------------------------------|
--0--0--0--0--0--0-----0--0--0----|--0--0--0--0--0--0-----0--0--0----|
--0--0--0--0--0--0-----0--0--0----|--0--0--0--0--0--0-----0--0--0----|
--0--0--0--0--0--0-----0--0--0----|--0--0--0--0--0--0-----0--0--0----|


  PM PM PM PM PM PM    PM PM PM      PM PM PM PM PM PM    PM PM PM    
  S  S  E  S  S  E  E  S  S  Q       S  S  E  S  S  E  E  S  S  Q     
----------------------------------|----------------------------------|
----------------------------------|----------------------------------|
----------------------------------|----------------------------------|
--0--0--0--0--0--0-----0--0--0----|--0--0--0--0--0--0-----0--0--0----|
--0--0--0--0--0--0-----0--0--0----|--0--0--0--0--0--0-----0--0--0----|
--0--0--0--0--0--0-----0--0--0----|--0--0--0--0--0--0-----0--0--0----|


  PM PM PM PM PM PM    PM PM PM      PM PM PM PM PM PM    PM PM PM    
  S  S  E  S  S  E  E  S  S  Q       S  S  E  S  S  E  E  S  S  Q     
----------------------------------|----------------------------------|
----------------------------------|----------------------------------|
----------------------------------|----------------------------------|
--0--0--0--0--0--0-----0--0--0----|--0--0--0--0--0--0-----0--0--0----|
--0--0--0--0--0--0-----0--0--0----|--0--0--0--0--0--0-----0--0--0----|
--0--0--0--0--0--0-----0--0--0----|--0--0--0--0--0--0-----0--0--0----|


  PM PM PM PM PM PM    PM PM PM                                             
  S  S  E  S  S  E  E  S  S  Q        W                   W                 
----------------------------------|--------------------|-------------------|
----------------------------------|--------------------|-------------------|
----------------------------------|--------------------|-------------------|
--0--0--0--0--0--0-----0--0--0----|--10----------------|--L----------------|
--0--0--0--0--0--0-----0--0--0----|---8----------------|--L----------------|
--0--0--0--0--0--0-----0--0--0----|---8----------------|--L----------------|


  E  S S E  E  E  E  E  E     E  E  E  Q    Q    E     E  E   E  E   
---------------------------|------------------------|---------------|
---------------------------|------------------------|---------------|
---------------------------|------------------------|---------------|
---------------------------|------------------------|--------10--0--|
------------------------3--|--L-----3--5---------0--|--3--7---------|
--5--0-0-3--0--3--5--0-----|-----0----------3-------|---------------|


  TP                  TP       TP          TP   TP   TP   TP    
  W                   H        H           Q    Q    Q    Q     
-------------------|--------------------|----------------------|
-------------------|--------------------|----------------------|
-------------------|--------------------|----------------------|
-------------------|--------------------|----------------------|
--8----------------|--7--------5--------|----------------------|
-------------------|--------------------|--8----5----7----3----|


  TP   TP   TP   TP      PM PM PM      PM PM PM   
  Q    Q    Q    Q       E  E  E  Q    E  E  E    
----------------------|-------------------------||
----------------------|-------------------------||
----------------------|-------------------------||
----------------------|--0--0--0-------0--0--0--||
--3----0----3----5----|--0--0--0-------0--0--0--||
----------------------|--0--0--0-------0--0--0--||




Duration Legend
---------------
W - whole
H - half
Q - quarter
E - 8th
S - 16th
T - 32nd
X - 64th
. - note dotted
|-n-|  - n-tuplets


Tablature Legend
----------------
L - tied note
x - dead note
g - grace note
(n) - ghost note
> - accentuded note
NH - natural harmonic
AH - artificial harmonic
TH - tapped harmonic
SH - semi harmonic
PH - pitch harmonic
h - hammer on
p - pull off
b - bend
br - bendRelease
pb - preBend
pbr - preBendRelease
brb - bendReleaseBend
\n/ - tremolo bar dip
\n - tremolo bar dive
-/n - tremolo bar Release up
/n\ - tremolo bar inverted dip
/n - tremolo bar return
-\n - tremolo bar Release down
S - shift slide
s - legato slide
/ -  slide into from below or out of upwards
\ -  slide into from above or out of downwards
~ - vibrato
W - wide vibrato
tr - trill
TP - tremolo picking
T - tapping
S - slap
P - pop
< - fade in
^ - brush up
v - brush down