Song name
# A B C D E F G H I J K L M N O P Q R S T U V W X Y Z

At The Drive-in - A Devil Among The Tailors tab

Verse:
e|-------------------------------------------|
b|-------------------------------------------|
g|---10-10-10-10-10---10-10-10-10-10-10-10---|
d|----9--9--9--9--9----9--9--9--9--9--9--9---|
a|----8--8--8--8--8----8--8--8--8--8--8--8---|
e|---------------------7--7--7--7--7--7--7---|

Riff 2:
 gtr1: (stacatto)
e|--------------------------------------------------------|
b|--------------------------------------------------------|
g|--------------------------------------------------------|
d|--------------------------------------------------------|
a|--------------------------------------------------------|
e|---1111444411433336666336-111144441143333666633333333---|

 gtr2:
e|---13--------------------13---------------------|
b|------------------------------------------------|
g|------13-11h13-13-11h13-----13-11h13-13-11h13---|
d|------------------------------------------------|
a|------------------------------------------------|
e|------------------------------------------------|

Riff 3:
 gtr1:
e|-----------------------------------------------|
b|-----------------------------------------------|
g|---10-10-10-10-10-10-----------------7-7-7-7---|
d|----9--9--9--9--9--9-7-7-7-7-6-6-6-6-9-9-9-9---|
a|----8--8--8--8--8--8-7-7-7-7-6-6-6-6-9-9-9-9---|
e|---------------------5-5-5-5-4-4-4-4-----------|
   It's so hard to tab the 2nde guitar. Help me!

end with:
e|---0---|
b|---0---|
g|---0---|
d|---2---|
a|---2---|
e|---0---|
Tap to rate this tab
 
# A B C D E F G H I J K L M N O P Q R S T U V W X Y Z