Song name
# A B C D E F G H I J K L M N O P Q R S T U V W X Y Z

At The Drive-in - Rolodex Propaganda tab

-----------------------------------------------------------------------------
			     ROLODEX PROPAGANDA - At The Drive-in
-----------------------------------------------------------------------------
Tabbed by: Jon C.
Email: espio_beavis297@yahoo.com

Tuning: Standard

Verse: 
e|-------0----------------------------------|
B|-------5brb----5-----7------8-----10------|
G|-----------------4--------7-----8---------|
D|------------------------6-----7------7----| Pt 1
A|-0-0--------------------------------------|
E|------------------------------------------|

e|--0--------------0---------0--------------|
B|-10brb----0----3---3-----6---5------------|
G|--------0----4-------4/8------------------| 
D|------------------------------------------|
A|------------------------------------------|
E|------------------------------------------|






e|---------------------------------------------------------------|
B|---------------------------------------------------------------|
G|---7-7--7-7--7-7--7-7--7-7-7-7---------------------------------|
D|---x-x--x-x--x-x--x-x--x-x-x-x--7-7--7-7--6-6--6-6--6-6-6-6----| pt 2
A|---8-8--8-8--8-8--8-8--8-8-8-8--x-x--x-x--x-x--x-x--x-x-x-x----|
E|--------------------------------8-8--8-8--7-7--7-7--7-7-7-7----|


Note: I'm not sure about the chorus but it sounds alright.


e|--------------------------------------|
B|--------------------------------------|
G|--10----------------------------------|
D|--10-X16---7-------5------10----------| pt 3
A|--8--------7-x16---5-x16--10-x16------|
E|-----------5-------3------8-----------|


e|---------------------------|
B|---------------------------|
G|---------------------------|
D|---------------------------| pt 4
A|---------------------------|
E|--5-5\3-3-3/8-8-8\3-3-3/5--|

Song order-
Pt.1
Pt.2
Pt.3
Pt.1
Pt.2
Pt.3
Pt.4
Pt.1

you can figure out how many times each needs to be played.


************************************

| /   slide up
| \   slide down
| h   hammer-on
| p   pull-off
| ~   vibrato
| +   harmonic
| x   Mute note
| b   Bend
| pb  Pre-bend
| br  Bend release
| pbr Pre-bend release
| brb Bend release bend

************************************
  
Tap to rate this tab
# A B C D E F G H I J K L M N O P Q R S T U V W X Y Z