Song name
# A B C D E F G H I J K L M N O P Q R S T U V W X Y Z

At The Drive In - Pattern Against User tab

Help us improve GuitareTab! Take a short survey!
-----------------------------------------------------------------------------
		   At the Drive-In - Pattern Against User
-----------------------------------------------------------------------------
Hope there are still some people out there who remember this great band.
Enjoy

Tuning: Standard

| / Slide Up
| \ Slide Down
| + Harmonic

Intro/Chorus (w/dist)
e|-----7------5------------------|-----7-----5------------------------------|
B|--------------7--0-0-8-7-5-7---|-7/8---------7--0-0-8-7-5-7---------------|
G|-7-7----7-7--------------------|-------7-7--------------------------------|
D|-------------------------------|------------------------------------------|
A|-------------------------------|------------------------------------------|
E|-------------------------------|------------------------------------------|

Verse (w/dist)
e|-------12----12-----------------|
B|-15----------13----12--------12-|
G|-------------------------14-----|
D|--------------------------------|
A|--------------------------------|
E|--------------------------------|

Break (clean)
e|---------------------------------------------------------------+12--------|
B|------------------------------------------------------------------+12-----|
G|--------------------------------------------------------------------------|
D|--------------------------------------------------------------------------|
A|--------------------------------------------------------------------------|
E|--------------------------------------------------------------------------|

e|----------------5-----4-----------2----0----------------------------------|
B|---5---7-5--------5-----5-----------------------2-------------------------|
G|-6---6-----6--------6-----6\-2---------------------2/---------------------|
D|--------------------------------------------------------------------------|
A|--------------------------------------------------------------------------|
E|--------------------------------------------------------------------------|

e|-------------5----4---0---------2----0--------0--0------------------------|
B|---5---7-5--------------5\--------------------0--0------------------------|
G|-6---6-----6---------------2------------------2--2------------------------|
D|--------------------------------------------------------------------------|
A|--------------------------------------------------------------------------|
E|--------------------------------------------------------------------------|

e|---------------------------------|----------------------------------------|
B|---------7-----7-----------------|---------7-----7------------------------|
G|-6-9-6-9-----7---7-9-7-9-6-7-6-7-|-6-9-6-9-----7---7----------------------|
D|-----------9---------------------|-----------9----------------------------|
A|---------------------------------|----------------------------------------|
E|---------------------------------|----------------------------------------|

Final Chorus (w/dist & phaser)

e|-7-7-7-7-5-5---2--2-2-3-2-2-2-2-|
B|-8-8-8-8-------0--0-0-0-0-0-0-0-|
G|---------7-7--------------------|
D|--------------------------------|
A|--------------------------------|
E|--------------------------------|
Related for Pattern Against User tab