Guitaretab - guitar tabs
Song name
# A B C D E F G H I J K L M N O P Q R S T U V W X Y Z

At The Drive In - El Gran Orgo tab

this is the tab for the ep El Gran Orgo.  Guitar 1 is the left speaker, guitar 2 is the right.
Jim didnt play guitar on this cd(he was kicked out of the band then but later obviosly returned)
so i dont know who guitar 2 is but omar is guitar 1. Enjoy and rate.


                               -El Gran Orgo-

-----------------------------------------------------------------------
1. Give it a Name
-----------------------------------------------------------------------

Guitar 1 - Standard Tuning

Intro

e--------------------------------|---------------------------------|
b--------------------------------|---------------------------------|
g-5--7-5--4-7--5--4--------------|-----9--------5---------2--------| (x2)
d-x--x-x--x-x--x--x--------------|-----x--------x---------x--------|
a-3--5-3--2-5--3--2--------------|-----7--------3---------0--------|
E--------------------------------|---------------------------------|

Pre verse

e----------------------------|
b----------------------------|
g-10/99999999-10-9-10-12~----|
d--x/xxxxxxxx-x--x-x--x------|
a--8/77777777-8--7-8--10~----|
E----00000000----------------|

Verse

e-----------------------------------|
b-----------------------------------|
g-10-9-7-9-10-9-7--10-9-10-12/14~---|
d-x--x-x-x-x--x-x--x--x-x--x-/x-----|
a-8--7-5-7-8--7-5--8--7-8--10/12~---|
E-----------------------------------|

e-----------------------------------|
b-----------------------------------|
g-10-9-7-9-10-9-7--10-9-10-5/4~-----|
d-x--x-x-x-x--x-x--x--x-x--x/x------|
a-8--7-5-7-8--7-5--8--7-8--3/2~-----|
E-----------------------------------|

Chorus

e---2---1-----2------------------------|
b-1-2-1-x---1-2---6-5-6-5-6-5-6-5------|
g-0-0-2-2---0-0-------------------5----|
d-2-x-2-3---2-x------------------------|
a-3-2-0-----3-2------------------------|
E---3---------3------------------------|

Interlude "dont know what you got till its gone"

e---------------|
b---------------|
g---------------|
d-10~~~---7-----|
a-10~~~---7-----| (x4)
E-8~~~~---5-----|

e-----------------------------------------|
b-----------------------------------------|
g-----------------------------------------|
d-10-5-2-3-------5-3~~~-------------------|
a-10-5-2-3--(x3)-5-3~~~---7-8-10-8-7-8----|
E-8--3-0-1-------3-1~~~-------------------|

after that everything repeats then this riff for outro

e-0---0---0------------|
b---1---1---1----------|
g-----2---2---2--------|
d----------------------|
a----------------------|
E----------------------|

Guitar 2 - Standard Tuning

Intro

e--------------------------------|---------------------------------|
b--------------------------------|---------------------------------|
g-5--7-5--4-7--5--4--------------|-----9--------5---------2--------| (x2)
d-x--x-x--x-x--x--x--------------|-----x--------x---------x--------|
a-3--5-3--2-5--3--2--------------|-----7--------3---------0--------|
E--------------------------------|---------------------------------|

Pre Verse

e-----------------------|
b-----------------------|
g-----------------------|
d-10--7~-7-7-7--7-5-10--|
a-10--7~-7-7-7--7-5-10--|
E-8---5~-5-5-5--5-3-8---|

Verses -  strum these chords clean

e-1-------2-1---|
b-0-1-1-1-2-0---|
g-2-2-0-2-0-2---|
d-3-2-2-2-x-3---|
a---0-3-0-2-----|
E---------3-----|

Chorus

e---2---1-----2-1-----------------------|
b-1-2-1-x---1-2-x-----------------------|
g-0-0-2-2---0-0-2-----------------------|  (x2)
d-2-x-2-3---2-x-3-----------------------|
a-3-2-0-----3-2-------------------------|
E---3---------3-------------------------|


Interlude "dont know what you got till its gone"

e---------------------------|
b---------------------------|
g---------------------------|
d-10-x-10-x-10-x--10--7-----|
a-10-x-10-x-8--x--10--7-----| (x4)
E-8--x-8--x-8--x--8---5-----|

e-----------------------------------------|
b-----------------------------------------|
g-----------------------------------------|
d-10-5-2-3-------5-3~~~-------------------|
a-10-5-2-3--(x3)-5-3~~~---7-8-10-8-7-8----|
E-8--3-0-1-------3-1~~~-------------------|

Outro

e-0---0---0------------|
b---1---1---1----------|
g-----2---2---2--------|
d----------------------|
a----------------------|
E----------------------|

Thats it

--------------------------------------------------------------------------
2. Honest To a Fault
--------------------------------------------------------------------------

Guitar 1 - Standard Tuning

Intro/Chorus

e----------------|
b----------------|
g------777777----|
d-4444-777777----|
a-4444-555555----|
E-2222-----------|

Verses

e----------------------------------------|
b----------------------------------------|
g--6-6-6-6-7-7-7-7-6-6-6-6-12-11-11-9-9--|
d--x-x-x-x-x-x-x-x-x-x-x-x--x--x--x-x-x--|
a--4-4-4-4-5-5-5-5-4-4-4-4-10--9--9-7-7--|
E----------------------------------------|
2nd time through
e----------------------------------------|
b----------------------------------------|
g--6-6-6-6-7-7-7-7-6-6-6-6-4-4-4-4-4-----|
d--x-x-x-x-x-x-x-x-x-x-x-x-x-x-x-x-x-----|
a--4-4-4-4-5-5-5-5-4-4-4-4-2-2-2-2-2-----|
E----------------------------------------|

Bridge thing

e------------------------------------------|
b------------------------------------------|
g---11--------11--------11--------11-------|
d-9----11--11----11--12----11--11----11----|
a------------------------------------------|
E------------------------------------------|

thats it

Guitar 2 - standard tuning

Intro/Chorus

e----------------|
b----------------|
g------777777----|
d-4444-777777----|
a-4444-555555----|
E-2222-----------|

Verses

e-----------------------------------|
b-----------------------------------|
g--------------------------7-77-77--|
d--7-77-77-9-99-99-4-44-44-7-77-77--|
a--7-77-77-9-99-99-4-44-44-5-55-55--|
E--5-55-55-7-77-77-2-22-22----------|
2nd time through
e-----------------------------------|
b-----------------------------------|
g-----------------------------------|
d--7-77-77-9-99-99-4-44-44-444444---|
a--7-77-77-9-99-99-4-44-44-444444---|
E--5-55-55-7-77-77-2-22-22-222222---|

Bridge

e---------------------------------------|
b---10------10-------10--------10-------|
g---------------------------------------|
d-9----9-11----11-12-----12-11-----11---|
a---------------------------------------|
E---------------------------------------|
Thats All

---------------------------------------------------------------------------
3. Winter Month Novelty
---------------------------------------------------------------------------

Guitar 1 - Standard Tuning

Intro

e-----------------------------|
b-----------------------------|
g------4-----4---4------------|
d-----------------------------|
a--3-3---3-3---3--------------|
E-----------------------------|
pm............................

Verse

e-----------------------------------------------------|
b--2-22-2-22-2-2-22-------------3-33-3------5-55-5----|
g--------------------------0-00-0-00-0-0-00-0-00-0----|
d--0-00-0-00-0-0-00-2-22-4-4-44--------4-44-----------|
a-----------------------------------------------------|
E-----------------------------------------------------|

Chorus

e---------------|
b---------------|
g-7--4----------|
d-7--4--7--5----|
a-5--2--7--5----|
E-------5--3----|

Interlude "bite the hand that feeds"

e------------------------------------------------------|
b------------------------------------------------------|
g--5--------------7---------------9---------------9----|
d--5--------------7---------------9---------------9----|
a--3--------------5---------------7---------------7----|
E------------------------------------------------------|

Next Interlude thing "bite the hand that feeds" (2nd one)

e------|
b------|
g-9----|
d-9----|  keep strumming
a-7----|
E------|

Outro "swallow your refills!"

e-----
b-----
g-9---
d-x---
a-7---
E-----
Thats all

Guitar 2 - Standard Tuning

Intro

e---------------3--------------------------------------------|
b----------------3----------------------------------0--------|
g--5---4-~~~~~----4---5---4-~~-4---4-4-4--4-4-4-----0---4~---|
d--5---5--------------5---5----5---5-5-5--5-5-5-----2-5~-----|
a--3---3--------------3---3----3---3-3-3--3-3-3-----2--------|
E-----------------------------------------------0-0-0--------|

Verses

e-----------------------------------------------------|
b--------------10-12-10-------------------------------|
g--6-66-7-77-7-0--0--0--------------------------------|
d--0-00-0-00-0-0--0--0--------------------------------|
a--0-00-0-00-0-0--0--0--------------------------------|
E-----------------------------------------------------|

Chorus

e--------------------------19----19----19------------|
b--12----12----12-------------19----19---19----------|
g-----11----11---11----------------------------------|
d----------------------------------------------------|
a----------------------------------------------------|
E----------------------------------------------------|

Interlude - " bite the hand that feeds"

e-------------------|
b-0~----------------|
g-0~------4~~~------|
f-2~---5~~~---------|
a-2~----------------|
E-0~----------------|

2nd Interlude

e------------------------------------------------------|
b------------------------------------------------------|
g--12---11-------12---11----------9--------------------|
d---x----x--------x----x----------x---------------9----|  x2
a--10----9-------10----9----------7---------------x----|
E-------------------------------------------------7----|

e--------------------------------------------------------|
b--------------------------------------------------------|
g-12---14-------12---14---------17---16---------17---16--|
d--x----x--------x----x----------x----x----------x----x--|
a-10---12-------10---12---------15---14---------15---14--|
E--------------------------------------------------------|

e---------------------------------------------------------|
b---------------------------------------------------------|
g--12------------11--------7-9---12-11--97-9-------------|
d---x-------------x--------x-x----x--x--x-x-x-------------|
a--10-------------9--------5-7---10--9--7-5-7-------------|
E---------------------------------------------------------|

Outro "swallow your refills"
[ Tab from: http://www.guitaretab.com/a/at-the-drive-in/61623.html ]
e-------|
b-------|
g-9-----|
d-x-9---|
a-7-x---|
E---7---|

--------------------------------------------------------------------------
4. Fahrenheit
--------------------------------------------------------------------------

Guitar 1 - Standard Tuning

Intro

e------------|
b------------|
g-99999999---|
d-xxxxxxxx---
a-77777777---|
E------------|

Verses

e---------------------------|
b---------------------------|
g---------------------------|
d-9999-99999-12121212-1111--|
a-7777-xxxxx-10101010-9-9---|
E-0000-77777----------------|

Chorus

e------------------------------------------------|
b------------------------------------------------|
g-9999999/777777/999999--------------------------|
d-xxxxxxx/xxxxxx/xxxxxx--12~12~~~10~10~~~--------|
a-7777777/555555/777777--12~12~~~10~10~~~--------|
E------------------------10~10~~~-8~8~~~~--------|

Interlude "Press eject.."
harmonic fills
e-0~~~~~---
b-0~~~~~---
g----------|
d----------|
a----------|
E----------|
then "ghetto blasting..."

e-------------------12-----|
b--------------------------|
g-9-9-9-9-9----------------|
d-8-8-8-8-8----------------|
a-7-7-7-7-7----------------|
E-0-0-0-0-0---10-----------|

thats it

Guitar 2

Verses

e---------------------------|
b---------------------------|
g---------------------------|
d-9999-99999-12121212-------|
a-7777-xxxxx-10101010-------|
E-0000-77777----------------|

Chorus

e------------------------------------------------|
b------------------------------------------------|
g-9999999/777777/999999--------------------------|
d-xxxxxxx/xxxxxx/xxxxxx--12~12~~~10~10~~~--------|
a-7777777/555555/777777--12~12~~~10~10~~~--------|
E------------------------10~10~~~-8~8~~~~--------|

Interlude

e-----------------------------------------------------------------|
b-----------------------------------------------------------------|
g-----------------------------------------------------------------|
d-----------------------------------------------------------------|
a----12-----10-----7------5----5-7----------12------12----9-10----|
E-00----00-----00-----00-----0-------10-10-------10----10---------|

then "ghetto blasting..."

e-------------------12-----|
b--------------------------|
g-9-9-9-9-9----------------|
d-8-8-8-8-8----------------|
a-7-7-7-7-7----------------|
E-0-0-0-0-0---10-----------|

---------------------------------------------------------------------------
5. Picket Fence Cartel
----------------------------------------------------------------------------

Guitar 1 - Standard Tuning

Intro

e--------------------------------------------------------|
b---11-11-11---11-11-11---11-11-11-----------------------|
g----x--x--x----x--x--x----x--x--x-----------------------|
d----8--8--8----8--8--8----8--8--8-----------------------|
a---10-10-10---10-10-10---10-10-10------8-8-8-10-10-12---|
E---------------------------------------6-6-6--8--8-10---|

Verse

e---------------------------------------------------------------------------------|
b---11-11-11-11-11--11-11-11-11-11--11-11-11--------------------------------------|
g----x--x--x--x--x---x--x--x--x--x---x--x--x---9--9--9--9--9-----------11-11-11---|
d----8--8--8--8--8---8--8--8--8--8---8--8--8--10-10-10-10-10--12-12-12--x--x--x---|
a---10-10-10-10-10--10-10-10-10-10--10-10-10---8--8--8--8--8--12-12-12--9--9--9---|
E-------------------------------------------------------------10-10-10------------|

Chorus

e-------------|
b-------------|
g---8-10------|
d-5-x-x--8----|
a-5-6-8--8----|
E-3------6----|

Pre 2nd Verse

e--------------------|
b---13-13-13-13-13---|
g---12-12-12-12-12---|
d----x--x--x--x--x---|
a---10-10-10-10-10---|
E--------------------|

Bridge

e---------------------------------------------------------------------------------------|
b---9\8--9\8------------------------------------------------------------101010111111----|
g------------77788877788810101012121212101010121212-777888101010121212------------------|
d---------------------------------------------------------------------------------------|
a---------------------------------------------------------------------------------------|
E---------------------------------------------------------------------------------------|

Thats all

Guitar 2 -  Standard Tuning

Intro

e--------------------------------------------------------|
b---11-11-11---11-11-11---11-11-11-----------------------|
g----x--x--x----x--x--x----x--x--x-----------------------|
d----8--8--8----8--8--8----8--8--8-----------------------|
a---10-10-10---10-10-10---10-10-10------8-8-8-10-10-12---|
E---------------------------------------6-6-6--8--8-10---|

Verses

e----------------------|
b----------------------|
g---8--7--10--9--11----|
d---x--x---x--x---x----|
a---6--5---8--7---9----|
E----------------------|


Chorus

e-------------|
b-------------|
g---8-10------|
d-5-x-x--8----|
a-5-6-8--8----|
E-3------6----|

Pre verse 2

e-------------------------|
b---11-11-11-11-11--------|
g----x--x--x--x--x--------|
d----8--8--8--8--8--------|
a---10-10-10-10-10--------|
E-------------------------|

Bridge

e---------------------------------------------------------------------------------------|
b---9\8--9\8------------------------------------------------------------101010111111----|
g------------77788877788810101012121212101010121212-777888101010121212------------------|
d---------------------------------------------------------------------------------------|
a---------------------------------------------------------------------------------------|
E---------------------------------------------------------------------------------------|

rest repeats

-----------------------------------------------------------------------------
6. Speehless
-----------------------------------------------------------------------------

Guitar 1 - Standard Tuning

Intro

e---------------------------------|
b-------------^-------------^-----|
g-999999999999999999999999999-----|
d---------------------------------|
a---------------------------------|
E---------------------------------|

Verse - "mother nature never smelled so good"

e---------------------------------|
b---------------------------------|
g---------------------------------|
d---------------------------------|
a-9999-1010101010-7777-12121212---|
E-7777-8-8-8-8-8--5555-10101010---|

Next part - "cuz no ones listening!"

e---------------------------------------|
b---------------------------------------|
g---------------------------------------|
d-99999----------------55555-7777-------|
a-99999----------------55555-7777-------|
E-77777----------------33333-5555-------|

Next Part - "hiding bruises brings you roses"

e---------------------------------------|
b---------------------------------------|
g---------------------------------------|
d-99999--12121212------55555-7777-------|
a-99999--12121212------55555-7777-------|
E-77777--10101010------33333-5555-------|

Transition from this part to Chorus "speak up now yah"

e---------------------------------|
b---------------------------------|
g-----------------------9999999---|
f-9~------------------------------|
a-9~------------------------------|
E-7~---7-7-7-7-7-7-7-7------------|

Chorus

e---------------------------------------|
b---------------------------------------|
g---------------------------------------|
d-99999--12121212------55555-7777-------|
a-99999--12121212------55555-7777-------|
E-77777--10101010------33333-5555-------|

Bass Solo

Next part - "sweet sacharide drinks taste so old"

e---5-9-9-7-12-10-9---------5-9-9-7-14-12-10--------|
b-7-----------------------7-------------------------|
g---------------------------------------------------|
d---------------------------------------------------|
a---------------------------------------------------|
E---------------------------------------------------|

next part where he says "when everything is wrong she just says 'im doin fine'"


e-----------------------------------|
b-----------------------------------|
g---------7-6-7-9-------------------|
d-9-7-5-----------9-12-14-16-17~~~--|
a-9-7-5-----------------------------|
E-7-5-3-----------------------------|

"shes reaching for something right"

e---------|
b---------|
g---------|
d-9-7-5---|
a-9-7-5---|
E-7-5-3---|

Thats all

Guitar 2

Intro

e---------------------------------|
b-------------^-------------^-----|
g-999999999999999999999999999-----|
d---------------------------------|
a---------------------------------|
E---------------------------------|

Verse "mother nature.."

e-------------|
b-------------|
g-9-10-7-12---|
d-x-x--x-x----|
a-7-8--5-10---|
E-0-----------|

Next part - "cuz no ones listening!"

e---------------------------------------|
b---------------------------------------|
g---------------------------------------|
d-99999----------------55555-7777-------|
a-99999----------------55555-7777-------|
E-77777----------------33333-5555-------|

Next part - "hiding bruises"

e---------------------------|
b---------------------------|
g------121212---------------|
d-9999-x-x-x---5555-7777----|
a-9999-101010--5555-7777----|
E-7777---------3333-5555----|

Transition from this part to Chorus "speak up now yah"

e---------------------------------|
b---------------------------------|
g-----------------------9999999---|
f-9~------------------------------|
a-9~------------------------------|
E-7~---7-7-7-7-7-7-7-7------------|

Chorus

e----------------------|
b----------------------|
g-4/12-7/9-4/7/4-------|
d-x/x--x/x-x/x/x-------| (x2)
a-2/10-5/7-2/5/2-------|
E----------------------|

then

e------------------------|
b------------------------|
g-4/12-7/14-4/7/4--------|
d-x/x--x/x--x/x/x--------| (x1)
a-2/10-5/12-2/5/2--------|
E------------------------|

then

e--------------------------|
b--------------------------|
g-14/12/14/12/1414141414---|
d-x-/x-/x-/x-/xxxxxxxxxx---| (x1)
a-12/10/12/10/1212121212---|
E--------------------------|

Bass solo

Then "sweet sacharade drinks taste so old"

e---------|
b---------|
g---------|
d-9-7-5---|
a-9-7-5---|
E-7-5-3---|

repeat the other stuff some

everything repeats from there

this is a really good cd also.  even though jim didnt play on it its my 2nd
favorite atdi release.
Related for El Gran Orgo tab