Song name
# A B C D E F G H I J K L M N O P Q R S T U V W X Y Z

At The Drive In - Alpha Centauri tab

Song: Alpha Centauri
Artist: At The Drive-In
Album: In / Casino / Out
Part: Outro Solo

I got this down pretty well. I'm working on a full tab. Please give feedback, and thanks for playing!

e|------0-----------------0-------0------0------------------------0----|
B|------8---------------3-------3--------8--12-10-8-----3-3-----3------|
G|----9----9---------5-------4---------9-------------5-------4---------|
D|------------10-------------------------------------------------------|
A|-0-------------12------------------0---------------------------------|
E|---------------------------------------------------------------------|

e|-----0--10-7----------0-------0-------0-----------------0-------0----|
B|-----8-------8------3-------3---------8---------------3-------3---5~-|
G|---9-------------5-------4----------9----9---------5-------4------x--|
D|--------------------------------------------10--------------------2~-|
A|-0-------------------------------0-------------12-----------------0~-|
E|---------------------------------------------------------------------|
Tap to rate this tab
# A B C D E F G H I J K L M N O P Q R S T U V W X Y Z