Song name
# A B C D E F G H I J K L M N O P Q R S T U V W X Y Z

At The Gates - The Fevered Circle tab

#----------------------------------PLEASE NOTE---------------------------------#
#This file is the author's own work and represents their interpretation of the #
#song. You may only use this file for private study, scholarship, or research. #
#------------------------------------------------------------------------------#

THE FEVERED CIRCLE
As recorded by At The Gates
(From the 1994 Album TERMINAL SPIRIT DISEASE)

Transcribed by The Foreverlorn
	



Gtr I (B E A D F# B) - 'Untitled'
Gtr II (B E A D F# B) - 'Untitled'
Gtr III (B E A D F# B) - 'Untitled'

 Intro
  Q=73
  C5/D5    A5   Bb5      G5   F5  C5/D5    A5 Bb5         G5 F5
 4/4
  Gtr I
   E  E  E  +E   +E   E  S  S E    E  E  E  E  +E   S   S  Q
|-------------------------------|------------------------------|
|-------------------------------|------------------------------|
|--------------------10--9h10-9-|------------------------------|
|-10-12-12-(12)-(12)------------|-10-12-12---------------------|
|-------------------------------|----------12-(12)-10h=12-10---|
|-------------------------------|------------------------------|
|
| Gtr II
|  E  E  E   E    E  +E  E    E    E  E  E  E   E  +E      E E
|-------------------------------|------------------------------|
|-------------------------------|------------------------------|
|-------------------------------|------------------------------|
|--5--7--7----------------------|--5--7--7---------------------|
|--3--5--5---7----8--(8)-5----3-|--3--5--5--7---8--(8)-----5-3-|
|--3---------5----6--(6)-3----1-|--3--------5---6--(6)-----3-1-|


  C5/D5    A5   Bb5      G5   F5  C5/D5  A5Bb5         G5 F5
   E  E  E  +E   +E   E  S  S E    H        +E   S   S  Q
|-------------------------------|----------------------------|
|-------------------------------|----------------------------|
|--------------------10--9h10-9-|-14-------(14)-12h=14-12----|
|-10-12-12-(12)-(12)------------|----------------------------|
|-------------------------------|----------------------------|
|-------------------------------|----------------------------|
|
|  E  E  E   E    E  +E  E    E    E E E E   E  +E      E E
|-------------------------------|----------------------------|
|-------------------------------|----------------------------|
|-------------------------------|----------------------------|
|--5--7--7----------------------|--5-7-7---------------------|
|--3--5--5---7----8--(8)-5----3-|--3-5-5-7---8--(8)-----5-3--|
|--3---------5----6--(6)-3----1-|--3-----5---6--(6)-----3-1--|


 Verse
  $
  C5D5  N.C.       C5D5  N.C.       C5D5  N.C.
        ~~~~~~           ~~~~~~           ~~~~~~~~~~~~~~           ~~~
  E E E E +H       E E E E +H       E E E E +H        E +E  S S E +H
|----------------|----------------|----------------|---------------------|
|----------------|----------------|----------------|---------------------|
|----------------|----------------|----------------|---------------------|
|-5-7-7----------|-5-7-7----------|-5-7-7----------|---------------------|
|-3-5-5----------|-3-5-5-3-(3)----|-3-5-5----------|-/3-(3)-2-3-2-(2)----|
|-3-----6-(6)----|-3--------------|-3-----4-(4)----|---------------------|
|
|       ~~~~~~           ~~~~~~           ~~~~~~~~~~~~~~           ~~~
| E E E E +H       E E E E +H       E E E E +H        E +E  S S E +H
|----------------|----------------|----------------|---------------------|
|----------------|----------------|----------------|---------------------|
|----------------|----------------|----------------|---------------------|
|-5-7-7----------|-5-7-7----------|-5-7-7----------|---------------------|
|-3-5-5----------|-3-5-5-3-(3)----|-3-5-5----------|---------------------|
|-3-----6-(6)----|-3--------------|-3-----4-(4)----|-/5-(5)-3-5-3-(3)----|


  C5D5  N.C.       C5D5  N.C.
        ~~~~~~           ~~~~~~
  E E E E +H       E E E E +Q   S S S S
|----------------|----------------------|
|----------------|----------------------|
|----------------|----------------------|
|-5-7-7----------|-5-7-7--------3-2-----|
|-3-5-5----------|-3-5-5-3-(3)------5-3-|
|-3-----6-(6)----|-3--------------------|
|
|       ~~~~~~           ~~~~~~
| E E E E +H       E E E E +H
|----------------|----------------------|
|----------------|----------------------|
|----------------|----------------------|
|-5-7-7----------|-5-7-7----------------|
|-3-5-5----------|-3-5-5-3-(3)----------|
|-3-----6-(6)----|-3--------------------|


                                D.C.
                                D.C.
  C5D5  N.C.
        ~~~~~~~~~~~~~~           ~~~
  E E E E +H        E +E  S S E +H
|----------------|----------------------|
|----------------|----------------------|
|----------------|----------------------|
|-5-7-7----------|----------------------|
|-3-5-5----------|-/3-(3)-2-3-2-(2)-----|
|-3-----4-(4)----|----------------------|
|
|       ~~~~~~~~~~~~~~           ~~~
| E E E E +H        E +E  S S E +H
|----------------|----------------------|
|----------------|----------------------|
|----------------|----------------------|
|-5-7-7----------|----------------------|
|-3-5-5----------|----------------------|
|-3-----4-(4)----|-/5-(5)-3-5-3-(3)-----|


   Interlude
    N.C.
    E E E E E E S S E   E E E E E E  Q
||--------------------|-----------------|
||o-------------------|-----------------|
||--------------------|-----------------|
||------------7-5-7-5-|-----------7-/8--|
||o-7-8-8-5-8---------|-7-8-8-5-8-------|
||--------------------|-----------------|
|
|   E E E E E E S S E   E E E E E E  Q
||--------------------|-----------------|
||o-------------------|-----------------|
||--------------------|-----------------|
||--------------------|-----------------|
||o-3-5-5---5-5-3-5---|-3-5-5---5-5-/8--|
||--------6---------6-|-------6---------|


                     1.
  E E E E E E S S E   E E E E E +E  E E
|-------------------|---------------------||
|-------------------|--------------------o||
|-------------------|---------------------||
|-----------7-5-7-5-|---------------------||
|-7-8-8-5-8---------|-7-8-8--------------o||
|-------------------|-------6-5-(5)-3-1---||
|
| E E E E E E S S E   E E E E E +E  E E
|-------------------|---------------------||
|-------------------|--------------------o||
|-------------------|---------------------||
|-------------------|---------------------||
|-3-5-5---5-5-3-5---|-3-5-5--------------o||
|-------6---------6-|-------6-5-(5)-3-1---||


                      Verse B
  2.                   Q=150
  N.C.    A5    G5F5   E5
                       PM----|       ~~~~~~~~~~PM      ~~~
                       |--3--| |--3--|  |--3---| |--3--|
  E E E E E +E  E E    E +E  E E +E  E +E  +E  E E +E  E
|-------------------||-----------------------------------|
|-------------------||-----------------------------------|
|-------------------||-----------------------------------|
|---------7-(7)-5-3-||---------2-(2)-------------2-(2)---|
|-7-8-8---7-(7)-5-3-||---------------1-(1)-(1)---------1-|
|-------6-5-(5)-3-1-||-0-(0)-0-----------------0---------|
|
| E E E E E +E  E E    W
|-------------------||-----------------------------------|
|-------------------||-----------------------------------|
|-------------------||-----------------------------------|
|---------7-(7)-5-3-||-2---------------------------------|
|-3-5-5---7-(7)-5-3-||-2---------------------------------|
|-------6-5-(5)-3-1-||-0---------------------------------|


 ~~~~~~~~~PM        ~~~~~~PM~~~~~~~~~~
   |--3---| |--3--| |--3--| |--3---|
  +E  +E  E E +E  E E +E  E E +E  +E
|--------------------------------------|
|--------------------------------------|
|--------------------------------------|
|-----------2-(2)----------------------|
|-(1)-(1)---------1--------------------|
|---------0---------3-(3)-0-3-(3)-(3)--|
|
| +W
|--------------------------------------|
|--------------------------------------|
|--------------------------------------|
|-(2)----------------------------------|
|-(2)----------------------------------|
|-(0)----------------------------------|


  E5                                   N.C.
  PM----|        ~~~~~~~~~~PM      ~~~~~~~~~~~~PM        ~~~~~~PM~~~~~~~~~~
  |--3--| |--3---|  |--3---| |--3--|    |--3---| |--3--| |--3--| |--3---|
  E +E  E E  +E  E +E  +E  E E +E  E   +E  +E  E E +E  E E +E  E E +E  +E
|------------------------------------|-------------------------------------|
|------------------------------------|-------------------------------------|
|------------------------------------|-------------------------------------|
|---------2--(2)-------------2-(2)---|-----------2-(2)---------------------|
|----------------1-(1)-(1)---------1-|-(1)-(1)---------1-------------------|
|-0-(0)-0------------------0---------|---------0---------3-(3)-0-3-(3)-(3)-|
|
|                                                        ~~~~~~PM~~~~~~~~~~
| |--3--|                                                |--3--| |--3---|
| E +E  E H.                            H                E +E  E E +E  +E
|------------------------------------|-------------------------------------|
|------------------------------------|-------------------------------------|
|------------------------------------|-------------------------------------|
|-2-(2)-2----------------------------|-------------------------------------|
|-2-(2)-2----------------------------|-------------------------------------|
|-0-(0)-0----------------------------|-------------------3-(3)-0-3-(3)-(3)-|


    N.C.
    Gtrs I, II
    PM----|       ~~~~~~~~~~PM      ~~~~~~~~~~~~PM        ~~~~~~PM~~~~~~~~~~
    |--3--| |--3--|  |--3---| |--3--|    |--3---| |--3--| |--3--| |--3---|
    E +E  E E +E  E +E  +E  E E +E  E   +E  +E  E E +E  E E +E  E E +E  +E
||------------------------------------|--------------------------------------||
||o-----------------------------------|-------------------------------------o||
||------------------------------------|--------------------------------------||
||----------2-(2)-------------2-(2)---|-----------2-(2)----------------------||
||o---------------1-(1)-(1)---------1-|-(1)-(1)---------1-------------------o||
||--0-(0)-0-----------------0---------|---------0---------3-(3)-0-3-(3)-(3)--||


   Interlude #2
    N.C.
    Gtr I
    PM----|       ~~~~~~~~~~PM      ~~~~~~~~~~~~PM        ~~~~~~PM~~~~~~~~~~
    |--3--| |--3--|  |--3---| |--3--|    |--3---| |--3--| |--3--| |--3---|
    E +E  E E +E  E +E  +E  E E +E  E   +E  +E  E E +E  E E +E  E E +E  +E
||------------------------------------|--------------------------------------||
||o-----------------------------------|-------------------------------------o||
||------------------------------------|--------------------------------------||
||----------2-(2)-------------2-(2)---|-----------2-(2)----------------------||
||o---------------1-(1)-(1)---------1-|-(1)-(1)---------1-------------------o||
||--0-(0)-0-----------------0---------|---------0---------3-(3)-0-3-(3)-(3)--||
|
|   Gtr II
|   PM----|       ~~~~~~~~~~PM      ~~~~~~~~~~~~PM        ~~~~~~PM~~~~~~~~~~
|   |--3--| |--3--|  |--3---| |--3--|    |--3---| |--3--| |--3--| |--3---|
|   E +E  E E +E  E +E  +E  E E +E  E   +E  +E  E E +E  E E +E  E E +E  +E
||------------------------------------|--------------------------------------||
||o-----------------------------------|-------------------------------------o||
||------------------------------------|--------------------------------------||
||----------2-(2)-3-(3)-(3)---2-(2)-5-|-(5)-(5)---2-(2)----------------------||
||o-----------------------------------|-----------------1-------------------o||
||--0-(0)-0-----------------0---------|---------0---------3-(3)-0-3-(3)-(3)--||


   Verse B
    N.C.
   2/2
    Gtrs I, II
    PM----|       ~~~~~~~~~~PM      ~~~~~~~~~~~~PM        ~~~~~~PM~~~~~~~~~~
    |--3--| |--3--|  |--3---| |--3--|    |--3---| |--3--| |--3--| |--3---|
    E +E  E E +E  E +E  +E  E E +E  E   +E  +E  E E +E  E E +E  E E +E  +E
||------------------------------------|---------------------------------------||
||o-----------------------------------|--------------------------------------o||
||------------------------------------|---------------------------------------||
||----------2-(2)-------------2-(2)---|-----------2-(2)-----------------------||
||o---------------1-(1)-(1)---------1-|-(1)-(1)---------1--------------------o||
||--0-(0)-0-----------------0---------|---------0---------3-(3)-0-3-(3)-(3)---||


   Verse C
    &
    N.C.
   4/4
     |--3--| |-3-| |--3--| |-3-|    |-3-| |--3--| |-3-|
     E +E  E E E E E +E  E E E E    Q Q Q E +E  E E E E
||-------------------------------|----------------------|
||o------------------------------|----------------------|
||-------------------------------|----------------------|
||-------------------------------|----------------------|
||o------------------------------|----------------------|
||--/6-(6)-6-6-5-3-2-(2)-2-2-2-2-|-/6-5-3-2-(2)-2-2-2-2-|


                                  D.S. al Coda
                                        E5
   |--3--| |-3-| |--3--| |-3-|    |-3-| |-3-|
   E +E  E E E E E +E  E E E E    Q Q Q Q Q Q
|------------------------------|-----------------||
|------------------------------|----------------o||
|------------------------------|-----------------||
|------------------------------|--------2-2-2----||
|------------------------------|--------2-2-2---o||
|-/6-(6)-6-6-5-3-2-(2)-2-2-2-2-|-/6-5-3-0-0-0----||


   Verse B
    N.C.
    Gtrs I, II
    PM----|       ~~~~~~~~~~PM      ~~~~~~~~~~~~PM        ~~~~~~PM~~~~~~~~~~
    |--3--| |--3--|  |--3---| |--3--|    |--3---| |--3--| |--3--| |--3---|
    E +E  E E +E  E +E  +E  E E +E  E   +E  +E  E E +E  E E +E  E E +E  +E
||------------------------------------|--------------------------------------||
||o-----------------------------------|-------------------------------------o||
||------------------------------------|--------------------------------------||
||----------2-(2)-------------2-(2)---|-----------2-(2)----------------------||
||o---------------1-(1)-(1)---------1-|-(1)-(1)---------1-------------------o||
||--0-(0)-0-----------------0---------|---------0---------3-(3)-0-3-(3)-(3)--||


   Interlude #2
    N.C.
    Gtr I
    PM----|       ~~~~~~~~~~PM      ~~~~~~~~~~~~PM        ~~~~~~PM~~~~~~~~~~
    |--3--| |--3--|  |--3---| |--3--|    |--3---| |--3--| |--3--| |--3---|
    E +E  E E +E  E +E  +E  E E +E  E   +E  +E  E E +E  E E +E  E E +E  +E
||------------------------------------|--------------------------------------||
||o-----------------------------------|-------------------------------------o||
||------------------------------------|--------------------------------------||
||----------2-(2)-------------2-(2)---|-----------2-(2)----------------------||
||o---------------1-(1)-(1)---------1-|-(1)-(1)---------1-------------------o||
||--0-(0)-0-----------------0---------|---------0---------3-(3)-0-3-(3)-(3)--||
|
|   Gtr II
|   PM----|       ~~~~~~~~~~PM      ~~~~~~~~~~~~PM        ~~~~~~PM~~~~~~~~~~
|   |--3--| |--3--|  |--3---| |--3--|    |--3---| |--3--| |--3--| |--3---|
|   E +E  E E +E  E +E  +E  E E +E  E   +E  +E  E E +E  E E +E  E E +E  +E
||------------------------------------|--------------------------------------||
||o-----------------------------------|-------------------------------------o||
||------------------------------------|--------------------------------------||
||----------2-(2)-3-(3)-(3)---2-(2)-5-|-(5)-(5)---2-(2)----------------------||
||o-----------------------------------|-----------------1-------------------o||
||--0-(0)-0-----------------0---------|---------0---------3-(3)-0-3-(3)-(3)--||


   Verse B
    N.C.
   2/2
    Gtrs I, II
    PM----|       ~~~~~~~~~~PM      ~~~~~~~~~~~~PM        ~~~~~~PM~~~~~~~~~~
    |--3--| |--3--|  |--3---| |--3--|    |--3---| |--3--| |--3--| |--3---|
    E +E  E E +E  E +E  +E  E E +E  E   +E  +E  E E +E  E E +E  E E +E  +E
||------------------------------------|---------------------------------------||
||o-----------------------------------|--------------------------------------o||
||------------------------------------|---------------------------------------||
||----------2-(2)-------------2-(2)---|-----------2-(2)-----------------------||
||o---------------1-(1)-(1)---------1-|-(1)-(1)---------1--------------------o||
||--0-(0)-0-----------------0---------|---------0---------3-(3)-0-3-(3)-(3)---||


   Verse C
    N.C.
   4/4
     |--3--| |-3-| |--3--| |-3-|    |-3-| |--3--| |-3-|
     E +E  E E E E E +E  E E E E    Q Q Q E +E  E E E E
||-------------------------------|----------------------|
||o------------------------------|----------------------|
||-------------------------------|----------------------|
||-------------------------------|----------------------|
||o------------------------------|----------------------|
||--/6-(6)-6-6-5-3-2-(2)-2-2-2-2-|-/6-5-3-2-(2)-2-2-2-2-|


                                        E5
   |--3--| |-3-| |--3--| |-3-|    |-3-| |-3-|
   E +E  E E E E E +E  E E E E    Q Q Q Q Q Q
|------------------------------|-----------------||
|------------------------------|----------------o||
|------------------------------|-----------------||
|------------------------------|--------2-2-2----||
|------------------------------|--------2-2-2---o||
|-/6-(6)-6-6-5-3-2-(2)-2-2-2-2-|-/6-5-3-0-0-0----||


 Verse
  Q=73
  C5D5  N.C.       C5D5  N.C.       C5D5  N.C.
  Gtr I
        ~~~~~~           ~~~~~~           ~~~~~~~~~~~~~           ~~~
  E E E E +H       E E E E +H       E E E E +H       E +E  S S E +H
|----------------|----------------|----------------|--------------------|
|----------------|----------------|----------------|--------------------|
|----------------|----------------|----------------|--------------------|
|-5-7-7----------|-5-7-7----------|-5-7-7----------|--------------------|
|-3-5-5----------|-3-5-5-3-(3)----|-3-5-5----------|-3-(3)-2-3-2-(2)----|
|-3-----6-(6)----|-3--------------|-3-----4-(4)----|--------------------|
|
| Gtr II
|       ~~~~~~           ~~~~~~           ~~~~~~~~~~~~~           ~~~
| E E E E +H       E E E E +H       E E E E +H       E +E  S S E +H
|----------------|----------------|----------------|--------------------|
|----------------|----------------|----------------|--------------------|
|----------------|----------------|----------------|--------------------|
|-5-7-7----------|-5-7-7----------|-5-7-7----------|--------------------|
|-3-5-5----------|-3-5-5-3-(3)----|-3-5-5----------|--------------------|
|-3-----6-(6)----|-3--------------|-3-----4-(4)----|-5-(5)-3-5-3-(3)----|


  C5D5  N.C.       C5D5  N.C.             C5D5  N.C.
        ~~~~~~           ~~~~~~                 ~~~~~~~~~~~~~           ~~~
  E E E E +H       E E E E +Q   S S S S   E E E E +H       E +E  S S E +H
|----------------|----------------------|----------------|--------------------|
|----------------|----------------------|----------------|--------------------|
|----------------|----------------------|----------------|--------------------|
|-5-7-7----------|-5-7-7--------3-2-----|-5-7-7----------|--------------------|
|-3-5-5----------|-3-5-5-3-(3)------5-3-|-3-5-5----------|-3-(3)-2-3-2-(2)----|
|-3-----6-(6)----|-3--------------------|-3-----4-(4)----|--------------------|
|
|       ~~~~~~           ~~~~~~                 ~~~~~~~~~~~~~           ~~~
| E E E E +H       E E E E +H             E E E E +H       E +E  S S E +H
|----------------|----------------------|----------------|--------------------|
|----------------|----------------------|----------------|--------------------|
|----------------|----------------------|----------------|--------------------|
|-5-7-7----------|-5-7-7----------------|-5-7-7----------|--------------------|
|-3-5-5----------|-3-5-5-3-(3)----------|-3-5-5----------|--------------------|
|-3-----6-(6)----|-3--------------------|-3-----4-(4)----|-5-(5)-3-5-3-(3)----|


   Interlude/Outro
    N.C.
    E E E E E E S S E   E E E E E E  Q
||--------------------|-----------------|
||o-------------------|-----------------|
||--------------------|-----------------|
||------------7-5-7-5-|-----------7-/8--|
||o-7-8-8-5-8---------|-7-8-8-5-8-------|
||--------------------|-----------------|
|
|   E E E E E E S S E   E E E E E E  Q
||--------------------|-----------------|
||o-------------------|-----------------|
||--------------------|-----------------|
||--------------------|-----------------|
||o-3-5-5---5-5-3-5---|-3-5-5---5-5-/8--|
||--------6---------6-|-------6---------|


                     1.
  E E E E E E S S E   E E E E E +E  E E
|-------------------|---------------------||
|-------------------|--------------------o||
|-------------------|---------------------||
|-----------7-5-7-5-|---------------------||
|-7-8-8-5-8---------|-7-8-8--------------o||
|-------------------|-------6-5-(5)-3-1---||
|
| E E E E E E S S E   E E E E E +E  E E
|-------------------|---------------------||
|-------------------|--------------------o||
|-------------------|---------------------||
|-------------------|---------------------||
|-3-5-5---5-5-3-5---|-3-5-5--------------o||
|-------6---------6-|-------6-5-(5)-3-1---||


  2.
  N.C.    A5    G5F5  N.C.
  E E E E E +E  E E    W          +W           +W           +W
|-------------------|-----------|------------|------------|--------*|
|-------------------|-----------|------------|------------|--------*|
|-------------------|-----------|------------|------------|--------*|
|---------7-(7)-5-3-|-/3--------|-(3)--------|-(3)--------|-(3)----*|
|-7-8-8---7-(7)-5-3-|-----------|------------|------------|--------*|
|-------6-5-(5)-3-1-|-----------|------------|------------|--------*|
|
| E E E E E +E  E E    W          +W           +W           +W
|-------------------|-----------|------------|------------|--------*|
|-------------------|-----------|------------|------------|--------*|
|-------------------|-----------|------------|------------|--------*|
|---------7-(7)-5-3-|-----------|------------|------------|--------*|
|-3-5-5---7-(7)-5-3-|-/5--------|-(5)--------|-(5)--------|-(5)----*|
|-------6-5-(5)-3-1-|-----------|------------|------------|--------*|



Duration Legend
---------------
W - whole; H - half; Q - quarter; E - 8th; S - 16th; T - 32nd; X - 64th; a - acciaccatura
+ - note tied to previous; . - note dotted; .. - note double dotted
Uncapitalized letters represent notes that are staccato (1/2 duration)
Irregular groupings are notated above the duration line
Duration letters will always appear directly above the note/fret number it represents the
duration for.  Duration letters with no fret number below them represent rests.  Multi-
bar rests are notated in the form Wxn, where n is the number of bars to rest for.  Low
melody durations appear below the staff

Tablature Legend
----------------
 h   - hammer-on
 p   - pull-off
 b   - bend
 pb  - pre-bend
 r   - bend release (if no number after the r, then release immediately)
 /\  - slide into or out of (from/to "nowhere")
 s   - legato slide
 S   - shift slide
 - natural harmonic
[n]  - artificial harmonic
n(n) - tapped harmonic
 ~   - vibrato
 tr  - trill
 T   - tap
 TP  - trem. picking
 PM  - palm muting
\n/  - tremolo bar dip; n = amount to dip
 \n  - tremolo bar down
 n/  - tremolo bar up
/n\  - tremolo bar inverted dip
 =   - hold bend; also acts as connecting device for hammers/pulls
 <> - volume swell (louder/softer)
 x   - on rhythm slash represents muted slash
 o   - on rhythm slash represents single note slash

Misc Legend
-----------
 |  - bar
||  - double bar
||o - repeat start
o|| - repeat end
*|  - double bar (ending)
 :  - bar (freetime)
 $  - Segno
 &  - Coda
Tempo markers -  = BPM(8/16=s8/s16), where s8 = swing 8ths, s16 = swing 16ths

Tap to rate this tab
# A B C D E F G H I J K L M N O P Q R S T U V W X Y Z