Song name
# A B C D E F G H I J K L M N O P Q R S T U V W X Y Z

At The Gates - Legion tab

At The Gates actually tune their guitars down 5 steps to B and I couldn't be bothered 
it that low just for one song, so it's transcribed in E.

Tempo 180
 ~ bend


The intro riff gets repeated several times by guitar 1 w/varying drum tracks

Guitar 1:
e|-----------------|-----------------|-----------------|-----------------|
B|-----------------|-----------------|-----------------|-----------------|
G|-----------2-----|-----------2-----|-----------2-----|-----------2-----|
D|---4-------------|---4-------------|---4-------------|---4-------------|
A|-2---5-4-2---5-4-|-2---5-4-2---5~--|-2---5-4-2---5-4-|-2---5-4-2---5~--|
E|-----------------|-----------------|-----------------|-----------------|

Guitar 2:
e|-----------------|-----------------|-----------------|-----------------|
B|-----------------|-----------------|-----------------|-----------------|
G|-----------------|-----------------|-----------------|-----------------|
D|-----------------|-----------0-----|-----------3-----|-----------------|
A|-----------------|-----------0-----|-2---------3-----|-2---------------|
E|-----------------|-----------------|-2---------1-----|-2---------------|
Tap to rate this tab
# A B C D E F G H I J K L M N O P Q R S T U V W X Y Z