At The Gates - Into The Dead Sky tab

#----------------------------------PLEASE NOTE---------------------------------#
#This file is the author's own work and represents his interpretation of the   #
#song. You may only use this file for private study, scholarship, or research. #
#------------------------------------------------------------------------------#

               GUITAR TAB for "Into The Dead Sky" (At The Gates)
           Tabbed by Mario Carlo Pittalis (mariocarlo2000@hotmail.com)

IMPORTANT: this is the way I play the song on my guitar. I decided to arrange it 
in a different way (capo on 2nd fret) in order to avoid the "nightmare" position
at the beginning of the song and to merge the two guitars so you can play it with
one guitar, alone, but making it sound like two. Try it!



Classical Guitar, (CAPO ON 2ND FRET)

( ) = ghost note
p = pull and release note



Part I

E|-----------------------|-----------------------|-----------------------|------0----------------|
B|------0-----------2----|------0-----------2----|------0-----------0----|------------------3----|
G|----0---0-------0---0--|----0---0-------0---0--|----0---0-------0---0--|----0---0-------0---0--|
D|--2-------2---2-------2|--2-------2---2-------0|--4-------4---4-------4|--4-------4---4-------4|
A|-----------------------|-----------------------|-----------------------|-----------------------|
E|0-----------0----------|0-----------0----------|2-----------2----------|2-----------2----------|

E|-----------------------|-----------------------|-----------------------|------0----------------|
B|------0-----------2----|------0-----------2----|------0-----------0----|------------------3----|
G|----0---0-------0---0--|----0---0-------0---0--|----0---0-------0---0--|----0---0-------0---0--|
D|--2-------2---2-------2|--2-------2---2-------0|--4-------4---4-------4|--4-------4---4-------4|
A|-----------------------|-----------------------|-----------------------|-----------------------|
E|0-----------0----------|0-----------0----------|2-----------2----------|2-----------2----------|

E|--------2---------2----|--------2---------2----|--------2---------2----|--------2---------2----|
B|----2-3-------2-3------|----2-3-------2-3------|----2-3-------2-3------|----2-3-------2-3------|
G|-----------------------|-----------------------|-----------------------|-----------------------|
D|--4---------5----------|--4---------4----------|--4---------4----------|--4---------4----------|
A|2---------2------------|5---------4------------|2----------------------|5----------------------|
E|-----------------------|-----------------------|----------3------------|----------2------------|

E|-----------------------|-----------------------|------2-----------0----|-----------------------|
B|------0-----------2----|------0-----------2----|-----------------------|------3-----------2----|
G|----0---0-------0---0--|----0---0-------0---0--|----0---0-------0---0--|----0---0-------2---2--|
D|--2-------2---2-------2|--2-------2---2-------0|--4-------4---4-------4|--4-------4---4-------4|
A|-----------------------|-----------------------|-----------------------|-----------------------|
E|0----------(0)---------|(0)---------0----------|2-----------2----------|2-----------2----------|

E|--------2---------2----|--------2---------2----|--------2---------2----|--------2---------2----|
B|----2-3-------2-3------|----2-3-------2-3------|----2-3-------2-3------|----2-3-------2-3------|
G|-----------------------|-----------------------|-----------------------|-----------------------|
D|--4---------5----------|--4---------4----------|--4---------4----------|--4---------4----------|
A|2---------2------------|5---------4------------|2----------------------|5----------------------|
E|-----------------------|-----------------------|----------3------------|----------2------------|



Part II

E|-------------------------|--------------------------|
B|-------------------------|--------------------------|
G|----4--------------------|--------------------------|
D|--4---4---0-----0--------|----0---2(p0)-----0-------|
A|2-------0-----5-----4(p0)|--2-------------4-----4---|
E|------------3-----3------|0-----0-------2-----2---p0|

E|-------------------------|--------------------------|
B|-------------------------|--------------------------|
G|----4--------------------|--------------------------|
D|--4---4---0-----0--------|----0---2(p0)-----0-------|
A|2-------0-----5-----4(p0)|--2-------------4-----4---|
E|------------3-----3------|0-----0-------2-----2---p0|

E|-------------------------|--------------------------|
B|-------------------------|--------------------------|
G|----4--------------------|--------------------------|
D|--4---4---0-----0--------|----0---2(p0)-----0-------|
A|2-------0-----5-----4(p0)|--2-------------4-----4---|
E|------------3-----3------|0-----0-------2-----2---p0|

E|-------------------------|--------------------------|
B|-------------------------|--------------------------|
G|----4--------------------|--------------------------|
D|--4---4---0-----0--------|----0---2(p0)-----0-------|
A|2-------0-----5-----4(p0)|--2-------------4-----4---|
E|------------3-----3------|0-----0-------2-----2-----|



Part III

E|-------------------------|-------------------------|
B|----2---3--------2---3---|--------3------------3---|
G|------2------------2-----|----3-2----------3-2-----|
D|--4------(4)---4------(4)|--3------(3)---3------(3)|
A|2------------2-----------|1------------1-----------|
E|-------------------------|-------------------------|

E|-------------------------|-------------------------|
B|----2---3--------2---3---|--------3------------3---|
G|------2------------2-----|----3-2----------3-2-----|
D|--4------(4)---4------(4)|--0------(0)---0------(0)|
A|-------------------------|-------------------------|
E|2------------2-----------|3------------3-----------|

E|--------0-----------0--|--------0-----------0--|
B|------0-----------0----|------0-----------0----|
G|----2-----------2------|----2-----------2------|
D|--2-------2---2-------2|--2-------2---2-------2|
A|0-----------0----------|-----------------------|
E|-----------------------|3-----------3----------|

E|--------0-----------0--|----------------------|
B|------0-----------0----|----------------------|
G|----2-----------2------|----2----3-----2-----3|
D|--2-------2---2-------2|--0----0-----0-----0--|
A|0-----------0----------|----------------------|
E|-----------------------|3-----3----3-----3----|

Play this Part twice, than repeat it one more time fading...
Tap to rate this tab
 
# A B C D E F G H I J K L M N O P Q R S T U V W X Y Z