Song name
# A B C D E F G H I J K L M N O P Q R S T U V W X Y Z

At The Gates - Blinded By Fear tab

#----------------------------------PLEASE NOTE---------------------------------#
#This file is the author's own work and represents their interpretation of the #
#song. You may only use this file for private study, scholarship, or research. #
#------------------------------------------------------------------------------#

BLINDED BY FEAR 
As recorded by At The Gates
(From the 1995 Album SLAUGHTER OF THE SOUL)

Transcribed by Anders Bjorler (official tab) dahaunted@hotmail.com
	

Words and Music by At the Gates
Arranged by powertab - Carlos Acosta (geeko19)


Gtr I (B E A D F# B) - 'Untitled'
Gtr II (B E A D F# B) - 'Untitled'
Gtr III (B E A D F# B) - 'Untitled'
Gtr IV (B E A D F# B) - 'Untitled'

 Intro
  Moderate Metal Q=125
                                        C5B5 G5F#5
 4/4
  Gtrs I, II
  W          W          W          H    S E. S E.
|----------|----------|----------|----------------|
|----------|----------|----------|----------------|
|----------|----------|----------|----------------|
|----------|----------|----------|------5-4-------|
|----------|----------|----------|------3-2--5-4--|
|----------|----------|----------|-----------3-2--|


  N.C.                        N.C.
   E S S S S  E E S S S S E    E S S S S E  E S S S S S S
|---------------------------|-----------------------------|
|---------------------------|-----------------------------|
|---------------------------|-----------------------------|
|---------------------------|-----------------------------|
|-10---------10-9---------9-|-12---------9-10-------------|
|----0-0-0-0------0-0-0-0---|----8-8-8-8------7-7-7-7-7-7-|


  N.C.                        N.C.
   E S S S S  E E S S S S E    E S S S S E  E S S S S S S
|---------------------------|------------------------------|
|---------------------------|------------------------------|
|---------------------------|------------------------------|
|---------------------------|------------------------------|
|-10---------10-9---------9-|-12---------9-10--------------|
|----0-0-0-0------0-0-0-0---|----8-8-8-8------7-7-7-7-7-7--|


  N.C.                        N.C.
   E S S S S  E E S S S S E    E S S S S E  E S S S S S S
|---------------------------|-----------------------------|
|---------------------------|-----------------------------|
|---------------------------|-----------------------------|
|---------------------------|-----------------------------|
|-10---------10-9---------9-|-12---------9-10-------------|
|----0-0-0-0------0-0-0-0---|----8-8-8-8------7-7-7-7-7-7-|


  N.C.                        N.C.
   E S S S S  E E S S S S E    E S S S S E  E S S S S S S
|---------------------------|------------------------------|
|---------------------------|------------------------------|
|---------------------------|------------------------------|
|---------------------------|------------------------------|
|-10---------10-9---------9-|-12---------9-10--------------|
|----0-0-0-0------0-0-0-0---|----8-8-8-8------7-7-7-7-7-7--|


  E5  E5  E5  E5                    E5  E5  E5  E5        E5E5D#5/Bb
  PM------------|                   PM------------|         PM
                  |-3-|   |-3-|                     |-3-|
  S S S S S S S S S S S E S S S E   S S S S S S S S S S S E E E
|---------------------------------|-----------------------------|
|---------------------------------|-----------------------------|
|---------------------------------|-----------------------------|
|-2---2---2---2-----------------1-|-2---2---2---2---------2---1-|
|-2---2---2---2---------2---------|-2---2---2---2---------2-2-1-|
|-0-0-0-0-0-0-0-0-0h2h3---0h2h3---|-0-0-0-0-0-0-0-0-0h2h3---0---|


  E5  E5  E5  E5                    E5  E5  E5  E5        E5E5D#5/Bb
  PM------------|                   PM------------|         PM
                  |-3-|   |-3-|                     |-3-|
  S S S S S S S S S S S E S S S E   S S S S S S S S S S S E E E
|---------------------------------|-----------------------------|
|---------------------------------|-----------------------------|
|---------------------------------|-----------------------------|
|-2---2---2---2-----------------1-|-2---2---2---2---------2---1-|
|-2---2---2---2---------2---------|-2---2---2---2---------2-2-1-|
|-0-0-0-0-0-0-0-0-0h2h3---0h2h3---|-0-0-0-0-0-0-0-0-0h2h3---0---|


 Verse
  N.C.                        N.C.
   E S S S S  E E S S S S E    E S S S S E  E S S S S S S
|---------------------------|-----------------------------|
|---------------------------|-----------------------------|
|---------------------------|-----------------------------|
|---------------------------|-----------------------------|
|-10---------10-9---------9-|-12---------9-10-------------|
|----0-0-0-0------0-0-0-0---|----8-8-8-8------7-7-7-7-7-7-|


  N.C.                        N.C.
   E S S S S  E E S S S S E    E S S S S E  E S S S S S S
|---------------------------|------------------------------|
|---------------------------|------------------------------|
|---------------------------|------------------------------|
|---------------------------|------------------------------|
|-10---------10-9---------9-|-12---------9-10--------------|
|----0-0-0-0------0-0-0-0---|----8-8-8-8------7-7-7-7-7-7--|


  E5  E5  E5  E5                    E5  E5  E5  E5        E5E5D#5/Bb
  PM------------|                   PM------------|         PM
                  |-3-|   |-3-|                     |-3-|
  S S S S S S S S S S S E S S S E   S S S S S S S S S S S E E E
|---------------------------------|-----------------------------|
|---------------------------------|-----------------------------|
|---------------------------------|-----------------------------|
|-2---2---2---2-----------------1-|-2---2---2---2---------2---1-|
|-2---2---2---2---------2---------|-2---2---2---2---------2-2-1-|
|-0-0-0-0-0-0-0-0-0h2h3---0h2h3---|-0-0-0-0-0-0-0-0-0h2h3---0---|


  E5  E5  E5  E5                    E5  E5  E5  E5        E5E5D#5/Bb
  PM------------|                   PM------------|         PM
                  |-3-|   |-3-|                     |-3-|
  S S S S S S S S S S S E S S S E   S S S S S S S S S S S E E E
|---------------------------------|-----------------------------|
|---------------------------------|-----------------------------|
|---------------------------------|-----------------------------|
|-2---2---2---2-----------------1-|-2---2---2---2---------2---1-|
|-2---2---2---2---------2---------|-2---2---2---2---------2-2-1-|
|-0-0-0-0-0-0-0-0-0h2h3---0h2h3---|-0-0-0-0-0-0-0-0-0h2h3---0---|


 Chorus
  N.C.                                N.C.
  PM------------|                     PM------------|
                  |-3--|   |-3--|                     |-3--|   |-3--|
  S S S S S S S S S  S S E S  S S E   S S S S S S S S S  S S E S  S S  E
|-----------------------------------|------------------------------------|
|-----------------------------------|------------------------------------|
|-----------------------------------|------------------------------------|
|------------------------9--------8-|------------------------9-----------|
|-----------------7h10p7---7h10p7---|-----------------7h10p7---7h10p7-10-|
|-0-0-0-0-0-0-0-0-------------------|-0-0-0-0-0-0-0-0--------------------|
|
| Gtr II
| PM------------|                     PM------------|
|                 |-3--|   |-3--|                     |-3--|   |-3--|
| S S S S S S S S S  S S E S  S S E   S S S S S S S S S  S S E S  S S  E
|-----------------------------------|------------------------------------|
|-----------------------------------|------------------------------------|
|-----------------------------------|------------------------------------|
|------------------------9--------8-|------------------------9-----------|
|-----------------7h10p7---7h10p7---|-----------------7h10p7---7h10p7--6-|
|-0-0-0-0-0-0-0-0-------------------|-0-0-0-0-0-0-0-0--------------------|


  N.C.                                N.C.
  Gtrs I, II
  PM------------|                     PM------------|
                  |-3--|   |-3--|                     |-3--|
  S S S S S S S S S  S S E S  S S E   S S S S S S S S S  S S E E E
|-----------------------------------|------------------------------|
|-----------------------------------|------------------------------|
|-----------------------------------|------------------------------|
|------------------------9--------8-|------------------------9-----|
|-----------------7h10p7---7h10p7---|-----------------7h10p7---6-9-|
|-0-0-0-0-0-0-0-0-------------------|-0-0-0-0-0-0-0-0--------------|


 Verse
  N.C.                        N.C.
   E S S S S  E E S S S S E    E S S S S E  E S S S S S S
|---------------------------|-----------------------------|
|---------------------------|-----------------------------|
|---------------------------|-----------------------------|
|---------------------------|-----------------------------|
|-10---------10-9---------9-|-12---------9-10-------------|
|----0-0-0-0------0-0-0-0---|----8-8-8-8------7-7-7-7-7-7-|


  N.C.                        N.C.
   E S S S S  E E S S S S E    E S S S S E  E S S S S S S
|---------------------------|------------------------------|
|---------------------------|------------------------------|
|---------------------------|------------------------------|
|---------------------------|------------------------------|
|-10---------10-9---------9-|-12---------9-10--------------|
|----0-0-0-0------0-0-0-0---|----8-8-8-8------7-7-7-7-7-7--|


  N.C.                        N.C.
   E S S S S  E E S S S S E    E S S S S E  E S S S S S S
|---------------------------|-----------------------------|
|---------------------------|-----------------------------|
|---------------------------|-----------------------------|
|---------------------------|-----------------------------|
|-10---------10-9---------9-|-12---------9-10-------------|
|----0-0-0-0------0-0-0-0---|----8-8-8-8------7-7-7-7-7-7-|


  N.C.                        N.C.
   E S S S S  E E S S S S E    E S S S S E  E S S S S S S
|---------------------------|------------------------------|
|---------------------------|------------------------------|
|---------------------------|------------------------------|
|---------------------------|------------------------------|
|-10---------10-9---------9-|-12---------9-10--------------|
|----0-0-0-0------0-0-0-0---|----8-8-8-8------7-7-7-7-7-7--|


  E5  E5  E5  E5                    E5  E5  E5  E5        E5E5D#5/Bb
  PM------------|                   PM------------|         PM
                  |-3-|   |-3-|                     |-3-|
  S S S S S S S S S S S E S S S E   S S S S S S S S S S S E E E
|---------------------------------|-----------------------------|
|---------------------------------|-----------------------------|
|---------------------------------|-----------------------------|
|-2---2---2---2-----------------1-|-2---2---2---2---------2---1-|
|-2---2---2---2---------2---------|-2---2---2---2---------2-2-1-|
|-0-0-0-0-0-0-0-0-0h2h3---0h2h3---|-0-0-0-0-0-0-0-0-0h2h3---0---|


  E5  E5  E5  E5                    E5  E5  E5  E5        E5E5D#5/Bb
  PM------------|                   PM------------|         PM
                  |-3-|   |-3-|                     |-3-|
  S S S S S S S S S S S E S S S E   S S S S S S S S S S S E E E
|---------------------------------|-----------------------------|
|---------------------------------|-----------------------------|
|---------------------------------|-----------------------------|
|-2---2---2---2-----------------1-|-2---2---2---2---------2---1-|
|-2---2---2---2---------2---------|-2---2---2---2---------2-2-1-|
|-0-0-0-0-0-0-0-0-0h2h3---0h2h3---|-0-0-0-0-0-0-0-0-0h2h3---0---|


 Chorus
  N.C.                                N.C.
  PM------------|                     PM------------|
                  |-3--|   |-3--|                     |-3--|   |-3--|
  S S S S S S S S S  S S E S  S S E   S S S S S S S S S  S S E S  S S  E
|-----------------------------------|------------------------------------|
|-----------------------------------|------------------------------------|
|-----------------------------------|------------------------------------|
|------------------------9--------8-|------------------------9-----------|
|-----------------7h10p7---7h10p7---|-----------------7h10p7---7h10p7--6-|
|-0-0-0-0-0-0-0-0-------------------|-0-0-0-0-0-0-0-0--------------------|
|
| Gtr II
| PM------------|                     PM------------|
|                 |-3--|   |-3--|                     |-3--|   |-3--|
| S S S S S S S S S  S S E S  S S E   S S S S S S S S S  S S E S  S S  E
|-----------------------------------|------------------------------------|
|-----------------------------------|------------------------------------|
|-----------------------------------|------------------------------------|
|------------------------9--------8-|------------------------9-----------|
|-----------------7h10p7---7h10p7---|-----------------7h10p7---7h10p7-10-|
|-0-0-0-0-0-0-0-0-------------------|-0-0-0-0-0-0-0-0--------------------|


  N.C.
  Gtrs I, II
  PM------------|
                  |-3--|   |-3--|
  S S S S S S S S S  S S E S  S S E
|-----------------------------------|
|-----------------------------------|
|-----------------------------------|
|------------------------9--------8-|
|-----------------7h10p7---7h10p7---|
|-0-0-0-0-0-0-0-0-------------------|


  N.C.                           N.C.            C5B5 G5F#5
  PM------------|
                  |-3--|
  S S S S S S S S S  S S E E E   S S S S S S S S S E. S E.
|------------------------------|---------------------------|
|------------------------------|---------------------------|
|------------------------------|---------------------------|
|------------------------9-----|-----------------5-4-------|
|-----------------7h10p7---6-9-|-----------------3-2--5-4--|
|-0-0-0-0-0-0-0-0--------------|-0-0-0-0-0-0-0-0------3-2--|


   Interlude
    G5     A5Bb5 D5    C#5               F5     G5G#5 C5    B5
    Gtr I
    Q.     E Q   Q     W                 Q.     E Q   Q     W
||-------------------|-----------------|------------------|-------------------||
||o------------------|-----------------|------------------|------------------o||
||---------------7---|-6---------------|--------------5---|-4-----------------||
||--5------7-8---7---|-6---------------|-3------5-6---5---|-4-----------------||
||o-5------7-8---5---|-4---------------|-3------5-6---3---|-2----------------o||
||--3------5-6-------|-----------------|-1------3-4-------|-------------------||
|
|   Gtr II
|   ~~       ~         ~~~~~~~~~~~~~~~~~~~~~      ~         ~
|   Q.     E Q   Q     W                 Q.     E Q   Q     W
||-------------------|-----------------|------------------|-------------------||
||o------------------|-----------------|------------------|------------------o||
||-------------------|-----------------|------------------|-------------------||
||-------------------|-----------------|------------------|-------------------||
||o--------------5---|-4---------------|--------------3---|-2----------------o||
||--3------5-6-------|-----------------|-1------3-4-------|-------------------||
|
|   Gtr IV
|   E  E E E E E E E   E E E E E E E E   E  E E E E E E E   E E E E E E E E
||-------------------|-----------------|------------------|-------------------||
||o------3-----3-----|-----2-----2-----|------1-----1-----|-----0-----0------o||
||-----3-----3-----3-|---2-----2-----2-|----1-----1-----1-|---0-----0-----0---||
||--5------5-----5---|-5-----5-----5---|-3------3-----3---|-3-----3-----3-----||
||o------------------|-----------------|------------------|------------------o||
||-------------------|-----------------|------------------|-------------------||


 Guitar Solo
  Gtr I
   ~~~~~~~~~~~~~~~~~~
   H             +Q.          S  S    Q.          E  Q      E       +E
|----------------------------------|--------------------------------------|
|-12------------(12)---------13p12-|-13----------12-10-----12b13---(12)---|
|----------------------------------|--------------------------------------|
|----------------------------------|--------------------------------------|
|----------------------------------|--------------------------------------|
|----------------------------------|--------------------------------------|
|
| Gtr II
|  ~~~~~~~~~~~~~~~~~~
|  H             +Q.          S  S    Q.          E  Q      E       +E
|----------------------------------|--------------------------------------|
|----------------------------------|--------------------------------------|
|----------------------------------|--------------------------------------|
|--9-------------(9)---------10p=9-|-10-----------9--7------9b10----(9)---|
|----------------------------------|--------------------------------------|
|----------------------------------|--------------------------------------|
|
| Gtr III
|  E S S S S  E   E  S S S S  E       E  S S S S  E  E S S  S    S   S  S
|----------------------------------|--------------------------------------|
|----------------------------------|--------------------------------------|
|----------------------------------|--------------------------------------|
|----------------------------------|--------------------------------------|
|-10---------10---9-----------9----|-12-----------9-10--------------------|
|----0-0-0-0---------0-0-0-0-------|-----8-8-8-8-------7-7--7----7---7--7-|


   W                           H            H
|---------------------------|-----------------------------|
|-12------------------------|-\8------------4-------------|
|---------------------------|-----------------------------|
|---------------------------|-----------------------------|
|---------------------------|-----------------------------|
|---------------------------|-----------------------------|
|
|  W                           H            H
|---------------------------|-----------------------------|
|---------------------------|-----------------------------|
|---------------------------|-----------------------------|
|--9------------------------|-\5------------4-------------|
|---------------------------|-----------------------------|
|---------------------------|-----------------------------|
|
|  E S S S S  E E S S S S E    E S S S S E  E S S S S S S
|---------------------------|-----------------------------|
|---------------------------|-----------------------------|
|---------------------------|-----------------------------|
|---------------------------|-----------------------------|
|-10---------10-9---------9-|-12---------9-10-------------|
|----0-0-0-0------0-0-0-0---|----8-8-8-8------7-7-7-7-7-7-|


  E5                                   N.C.
   S  S S  S S S S S S S S S Q          S  S S  S S S S S S S S S Q
|------------------------------------|------------------------------------|
|-12-10p0-10-8p0-8-7p0-7-5p0-5-------|-12-10p0-10-8p0-8-7p0-7-5p0-5-------|
|------------------------------------|------------------------------------|
|------------------------------------|------------------------------------|
|------------------------------------|------------------------------------|
|------------------------------------|------------------------------------|
|
|  S  S S  S S S S S S S S S Q          S  S S  S S S S S S S S S Q
|------------------------------------|------------------------------------|
|--8--7p0--7-5p0-5-3p0-3-5p0-5-------|--8--7p0--7-5p0-5-3p0-3-5p0-5-------|
|------------------------------------|------------------------------------|
|------------------------------------|------------------------------------|
|------------------------------------|------------------------------------|
|------------------------------------|------------------------------------|
|
|  S  S S  S S S S S S S S S S S S S    S  S S  S S S S S S S S S S S S S
|------------------------------------|------------------------------------|
|------------------------------------|------------------------------------|
|------------------------------------|------------------------------------|
|------------------------------------|------------------------------------|
|--2--2-2--2-2-2-2-2-2-2-2-2-2-2-2-2-|------------------------------------|
|--0--0-0--0-0-0-0-0-0-0-0-0-0-0-0-0-|--8--8-8--8-8-8-8-8-8-8-8-8-8-8-8-8-|


  C                                    N.C.              C5B5 G5F#5
                                         ~~~
   S  S S  S S S S S S S S S Q           W
|------------------------------------|------------------------------|
|-12-10p0-10-8p0-8-7p0-7-5p0-5-------|-/12--------------------------|
|------------------------------------|------------------------------|
|------------------------------------|------------------------------|
|------------------------------------|------------------------------|
|------------------------------------|------------------------------|
|
|                                        ~~~
|  S  S S  S S S S S S S S S Q           W
|------------------------------------|------------------------------|
|--8--7p0--7-5p0-5-3p0-3-5p0-5-------|------------------------------|
|------------------------------------|-/12--------------------------|
|------------------------------------|------------------------------|
|------------------------------------|------------------------------|
|------------------------------------|------------------------------|
|
|  S  S S  S S S S S S S S S S S S S     S S S S S S S S S E. S E.
|------------------------------------|------------------------------|
|------------------------------------|------------------------------|
|------------------------------------|------------------------------|
|------------------------------------|-------------------5-4--------|
|------------------------------------|-------------------3-2--5-4---|
|--5--5-5--5-5-5-5-5-5-5-5-5-5-5-5-5-|---3-3-3-3-3-3-3-3------3-2---|


 Verse
  N.C.                        N.C.
  Gtrs I, II
   E S S S S  E E S S S S E    E S S S S E  E S S S S S S
|---------------------------|-----------------------------|
|---------------------------|-----------------------------|
|---------------------------|-----------------------------|
|---------------------------|-----------------------------|
|-10---------10-9---------9-|-12---------9-10-------------|
|----0-0-0-0------0-0-0-0---|----8-8-8-8------7-7-7-7-7-7-|


  N.C.                        N.C.
   E S S S S  E E S S S S E    E S S S S E  E S S S S S S
|---------------------------|------------------------------|
|---------------------------|------------------------------|
|---------------------------|------------------------------|
|---------------------------|------------------------------|
|-10---------10-9---------9-|-12---------9-10--------------|
|----0-0-0-0------0-0-0-0---|----8-8-8-8------7-7-7-7-7-7--|


  N.C.                        N.C.
   E S S S S  E E S S S S E    E S S S S E  E S S S S S S
|---------------------------|-----------------------------|
|---------------------------|-----------------------------|
|---------------------------|-----------------------------|
|---------------------------|-----------------------------|
|-10---------10-9---------9-|-12---------9-10-------------|
|----0-0-0-0------0-0-0-0---|----8-8-8-8------7-7-7-7-7-7-|


  N.C.                        N.C.
   E S S S S  E E S S S S E    E S S S S E  E S S S S S S
|---------------------------|------------------------------|
|---------------------------|------------------------------|
|---------------------------|------------------------------|
|---------------------------|------------------------------|
|-10---------10-9---------9-|-12---------9-10--------------|
|----0-0-0-0------0-0-0-0---|----8-8-8-8------7-7-7-7-7-7--|


  E5  E5  E5  E5                    E5  E5  E5  E5        E5E5D#5/Bb
  PM------------|                   PM------------|         PM
                  |-3-|   |-3-|                     |-3-|
  S S S S S S S S S S S E S S S E   S S S S S S S S S S S E E E
|---------------------------------|-----------------------------|
|---------------------------------|-----------------------------|
|---------------------------------|-----------------------------|
|-2---2---2---2-----------------1-|-2---2---2---2---------2---1-|
|-2---2---2---2---------2---------|-2---2---2---2---------2-2-1-|
|-0-0-0-0-0-0-0-0-0h2h3---0h2h3---|-0-0-0-0-0-0-0-0-0h2h3---0---|


  E5  E5    E E5                    E5  E5  E5  E5        E5E5D#5/Bb
  PM------------|                   PM------------|         PM
                  |-3-|   |-3-|                     |-3-|
  S S S S S S S S S S S E S S S E   S S S S S S S S S S S E E E
|---------------------------------|-----------------------------|
|---------------------------------|-----------------------------|
|---------------------------------|-----------------------------|
|-2---2---2---2-----------------1-|-2---2---2---2---------2---1-|
|-2---2---2---2---------2---------|-2---2---2---2---------2-2-1-|
|-0-0-0-0-0-0-0-0-0h2h3---0h2h3---|-0-0-0-0-0-0-0-0-0h2h3---0---|


 Out-Chorus
  N.C.                                N.C.
  PM------------|                     PM------------|
                  |-3--|   |-3--|                     |-3--|   |-3--|
  S S S S S S S S S  S S E S  S S E   S S S S S S S S S  S S E S  S S  E
|-----------------------------------|------------------------------------|
|-----------------------------------|------------------------------------|
|-----------------------------------|------------------------------------|
|------------------------9--------8-|------------------------9-----------|
|-----------------7h10p7---7h10p7---|-----------------7h10p7---7h10p7--6-|
|-0-0-0-0-0-0-0-0-------------------|-0-0-0-0-0-0-0-0--------------------|
|
| Gtr II
| PM------------|                     PM------------|
|                 |-3--|   |-3--|                     |-3--|   |-3--|
| S S S S S S S S S  S S E S  S S E   S S S S S S S S S  S S E S  S S  E
|-----------------------------------|------------------------------------|
|-----------------------------------|------------------------------------|
|-----------------------------------|------------------------------------|
|------------------------9--------8-|------------------------9-----------|
|-----------------7h10p7---7h10p7---|-----------------7h10p7---7h10p7-10-|
|-0-0-0-0-0-0-0-0-------------------|-0-0-0-0-0-0-0-0--------------------|


  N.C.                                N.C.
  Gtrs I, II
  PM------------|                     PM------------|
                  |-3--|   |-3--|                     |-3--|
  S S S S S S S S S  S S E S  S S E   S S S S S S S S S  S S E E E
|-----------------------------------|------------------------------|
|-----------------------------------|------------------------------|
|-----------------------------------|------------------------------|
|------------------------9--------8-|------------------------9-----|
|-----------------7h10p7---7h10p7---|-----------------7h10p7---6-9-|
|-0-0-0-0-0-0-0-0-------------------|-0-0-0-0-0-0-0-0--------------|


  N.C.                                N.C.
  Gtr I
  PM------------|                     PM------------|
                  |-3--|   |-3--|                     |-3--|   |-3--|
  S S S S S S S S S  S S E S  S S E   S S S S S S S S S  S S E S  S S  E
|-----------------------------------|------------------------------------|
|-----------------------------------|------------------------------------|
|-----------------------------------|------------------------------------|
|------------------------9--------8-|------------------------9-----------|
|-----------------7h10p7---7h10p7---|-----------------7h10p7---7h10p7--6-|
|-0-0-0-0-0-0-0-0-------------------|-0-0-0-0-0-0-0-0--------------------|
|
| Gtr II
| PM------------|                     PM------------|
|                 |-3--|   |-3--|                     |-3--|   |-3--|
| S S S S S S S S S  S S E S  S S E   S S S S S S S S S  S S E S  S S  E
|-----------------------------------|------------------------------------|
|-----------------------------------|------------------------------------|
|-----------------------------------|------------------------------------|
|------------------------9--------8-|------------------------9-----------|
|-----------------7h10p7---7h10p7---|-----------------7h10p7---7h10p7-10-|
|-0-0-0-0-0-0-0-0-------------------|-0-0-0-0-0-0-0-0--------------------|


  N.C.                                N.C.            C5B5 G5F#5
  Gtrs I, II
  PM------------|                     PM------------|
                  |-3--|   |-3--|
  S S S S S S S S S  S S E S  S S E   S S S S S S S S S E. S E.
|-----------------------------------|---------------------------*|
|-----------------------------------|---------------------------*|
|-----------------------------------|---------------------------*|
|------------------------9--------8-|-----------------5-4-------*|
|-----------------7h10p7---7h10p7---|-----------------3-2--5-4--*|
|-0-0-0-0-0-0-0-0-------------------|-0-0-0-0-0-0-0-0------3-2--*|



Duration Legend
---------------
W - whole; H - half; Q - quarter; E - 8th; S - 16th; T - 32nd; X - 64th; a - acciaccatura
+ - note tied to previous; . - note dotted; .. - note double dotted
Uncapitalized letters represent notes that are staccato (1/2 duration)
Irregular groupings are notated above the duration line
Duration letters will always appear directly above the note/fret number it represents the
duration for.  Duration letters with no fret number below them represent rests.  Multi-
bar rests are notated in the form Wxn, where n is the number of bars to rest for.  Low
melody durations appear below the staff

Tablature Legend
----------------
 h   - hammer-on
 p   - pull-off
 b   - bend
 pb  - pre-bend
 r   - bend release (if no number after the r, then release immediately)
 /\  - slide into or out of (from/to "nowhere")
 s   - legato slide
 S   - shift slide
 - natural harmonic
[n]  - artificial harmonic
n(n) - tapped harmonic
 ~   - vibrato
 tr  - trill
 T   - tap
 TP  - trem. picking
 PM  - palm muting
\n/  - tremolo bar dip; n = amount to dip
 \n  - tremolo bar down
 n/  - tremolo bar up
/n\  - tremolo bar inverted dip
 =   - hold bend; also acts as connecting device for hammers/pulls
 <> - volume swell (louder/softer)
 x   - on rhythm slash represents muted slash
 o   - on rhythm slash represents single note slash

Misc Legend
-----------
 |  - bar
||  - double bar
||o - repeat start
o|| - repeat end
*|  - double bar (ending)
 :  - bar (freetime)
 $  - Segno
 &  - Coda
Tempo markers -  = BPM(8/16=s8/s16), where s8 = swing 8ths, s16 = swing 16ths

Tap to rate this tab
# A B C D E F G H I J K L M N O P Q R S T U V W X Y Z