Song name
# A B C D E F G H I J K L M N O P Q R S T U V W X Y Z

At The Gates - World Of Lies tab

#----------------------------------PLEASE NOTE---------------------------------#
#This file is the author's own work and represents their interpretation of the #
#song. You may only use this file for private study, scholarship, or research. #
#------------------------------------------------------------------------------#

WORLD OF LIES
As recorded by At the Gates
(From the 1995 Album SLAUGHTER OF THE SOUL)

Transcribed by Robert Grunert
	

Words by Tomas Lindberg Music by A.Björler/J.Björler/At the Gates
Arranged by At the Gates

Gtr I (B E A D Gb B) - 'Untitled'
Gtr II (B E A D Gb B) - 'Untitled'

 Intro
  Q=125
                    N.C.
 4/4
  Gtrs I, II
                        PM|     PM              PM|     PM
  E. E. E Q  Q      S S E E S S E S S E E   S S E E S S E S S E E
|---------------||------------------------|------------------------|
|---------------||o-----------------------|------------------------|
|---------------||------------------------|------------------------|
|---------------||----------4h5-----------|---------4h5------------|
|-2--1----------||o-5h7-----------5h7-7-7-|-5h7-----------5h7-7-7--|
|-------3-2--0--||------0-0-----0---------|-----0-0-----0----------|


                                Bb5           Bb5   Bb5
      PM|     PM          PM--|       PM----|   PM|
  S S E E S S E S S E E   S S S S +S  S S S S E S S E.  4x
|-----------------------|-------------------------------||
|-----------------------|------------------------------o||
|-----------------------|-------------------------------||
|---------4h5-----------|-------------------------------||
|-5h7-----------5h7-7-7-|-------8-(8)---------8-----8--o||
|-----0-0-----0---------|-0-0-0-6-(6)-0-0-0-0-6-0-0-6---||


   Verse
    $
    $$
    N.C.
    PM|   PM  PM  PM  PM  PM  PM~   PM|   PM  PM  PM  PM  PM  PM~
    S S S S S S S S S S S S S S E   S S S S S S S S S S S S S S E
||--------------------------------|--------------------------------|
||o-------------------------------|--------------------------------|
||--------------------------------|--------------------------------|
||--------------------------------|--------------------------------|
||o-----2---1-----------2---1-----|-----2---1-----------2---1------|
||--0-0---0---0-2-0-3-0---0---0-2-|-0-0---0---0-2-0-3-0---0---0-2--|


  PM|   PM  PM  PM  PM  PM  PM~   PM|   PM  PM  PM  PM  PM
  S S S S S S S S S S S S S S E   S S S S S S S S S S S S S S E
|-------------------------------|--------------------------------||
|-------------------------------|-------------------------------o||
|-------------------------------|--------------------------------||
|-------------------------------|--------------------------------||
|-----5---4-----------5---4-----|-----5---4-----------5---------o||
|-3-3---3---3-5-3-6-3---3---3-5-|-3-3---3---3-5-3-6-3---3-6-5-3--||


 Pre-Chorus
 3/4
  Gtr I
  PM|    PM  PM   PM   PM    PM|    PM  PM--|   PM
  S S  S S S S  S S  S S E   S S  S S S S S S S S E
|--------------------------|------------------------|
|--------------------------|------------------------|
|--------------------------|------------------------|
|--------------------------|------------------------|
|-----10---9---12---12---9-|-----10---9-------7---6-|
|-0-0----0---0----8----8---|-0-0----0---0-4-4---4---|
|
| Gtr II
| PM|    PM  PM   PM   PM    PM|    PM  PM--|   PM
| S S  S S S S  S S  S S E   S S  S S S S S S S S E
|--------------------------|------------------------|
|--------------------------|------------------------|
|--------------------------|------------------------|
|--------------------------|------------------------|
|-----10---9---12---12---9-|-----10---9-------7---6-|
|-0-0----0---0----8----8---|-0-0----0---0-4-4---4---|


                             G5  F#5E5
  PM|    PM  PM   PM   PM
  S S  S S S S  S S  S S E    Q   E  Q.
|--------------------------|--------------|
|--------------------------|--------------|
|--------------------------|-12--11-12----|
|--------------------------|--------------|
|-----10---9---12---12---9-|-10---9-10----|
|-0-0----0---0----8----8---|--------------|
|
| PM|    PM  PM   PM   PM
| S S  S S S S  S S  S S E    Q   E  Q.
|--------------------------|--------------|
|--------------------------|--------------|
|--------------------------|--------------|
|--------------------------|--------------|
|-----10---9---12---12---9-|--5---4--2----|
|-0-0----0---0----8----8---|--3---2--0----|


 Chorus
  PM|    PM  PM   PM   PM    PM|    PM  PM--|     PM
  S S  S S S S  S S  S S E   S S  S S S S S  S S  S  E
|--------------------------|---------------------------|
|--------------------------|---------------------------|
|--------------------------|---------------------------|
|------9---7---10---10---9-|------9---7----------------|
|--------------------------|--------------9----9----10-|
|-0-0----0---0----8----8---|-0-0----0---0---11---11----|
|
| PM|    PM  PM   PM   PM    PM|    PM  PM--|     PM
| S S  S S S S  S S  S S E   S S  S S S S S  S S  S  E
|--------------------------|---------------------------|
|--------------------------|---------------------------|
|--------------------------|---------------------------|
|--------------------------|---------------------------|
|-----10---9---12---12---9-|-----10---9---9----9----10-|
|-0-0----0---0----8----8---|-0-0----0---0---11---11----|


                                     D.S.
                                     D.S.
                             G5  F#5E5
  PM|    PM  PM   PM   PM
  S S  S S S S  S S  S S E    Q   E  E Q
|--------------------------|----------------|
|--------------------------|----------------|
|--------------------------|-12--11-12------|
|------9---7---10---10---9-|----------------|
|--------------------------|-10---9-10------|
|-0-0----0---0----8----8---|----------------|
|
| PM|    PM  PM   PM   PM
| S S  S S S S  S S  S S E    Q   E  E Q
|--------------------------|----------------|
|--------------------------|----------------|
|--------------------------|----------------|
|--------------------------|----------------|
|-----10---9---12---12---9-|--5---4--2------|
|-0-0----0---0----8----8---|--3---2--0------|


  N.C.
 4/4                                                 2/4
  Gtrs I, II
  PM----------------------------------------------|
  E S S E S S E S S E S S   E S S E S S E S S E S S   E. E. E
|-------------------------|-------------------------|---------|
|-------------------------|-------------------------|---------|
|-------------------------|-------------------------|---------|
|-------------------------|-------------------------|---------|
|-------------------------|-------------------------|-2--1----|
|-0-0-0-0-0-0-0-0-0-0-0-0-|-0-0-0-0-0-0-0-0-0-0-0-0-|-------3-|


   Bridge
   4/4
        PM|     PM              PM|     PM
    S S E E S S E S S E E   S S E E S S E S S E E
||------------------------|-----------------------|
||o-----------------------|-----------------------|
||------------------------|-----------------------|
||----------4h5-----------|---------4h5-----------|
||o-5h7-----------5h7-7-7-|-5h7-----------5h7-7-7-|
||------0-0-----0---------|-----0-0-----0---------|


                                Bb5           Bb5   Bb5
      PM|     PM          PM--|       PM----|   PM|
  S S E E S S E S S E E   S S S S +S  S S S S E S S E.
|-----------------------|---------------------------------||
|-----------------------|--------------------------------o||
|-----------------------|---------------------------------||
|---------4h5-----------|---------------------------------||
|-5h7-----------5h7-7-7-|-------8-(8)---------8-----8----o||
|-----0-0-----0---------|-0-0-0-6-(6)-0-0-0-0-6-0-0-6-----||


  E5                      E5
                 PM                      PM
  E. S S S E +E  E S E.   E. S S S E +E  E S E.
|-----------------------|-----------------------|
|-----------------------|-----------------------|
|-----------------------|-----------------------|
|-----------------------|-----------------------|
|-2--------5-(5)-----8--|-2--------5-(5)--------|
|-0--0-5h7-------0-7----|-0--0-5h7-------0-5-3--|


  E5                      E5
                 PM                      PM
  E. S S S E +E  E S E.   E. S S S E +E  E S E.
|-----------------------|-----------------------|
|-----------------------|-----------------------|
|-----------------------|-----------------------|
|-----------------------|-----------------------|
|-2--------5-(5)-----8--|-2--------5-(5)--------|
|-0--0-5h7-------0-7----|-0--0-5h7-------0-5-3--|


  E5                      E5
                 PM                      PM
  E. S S S E +E  E S E.   E. S S S E +E  E S E.
|-----------------------|-----------------------|
|-----------------------|-----------------------|
|-----------------------|-----------------------|
|-----------------------|-----------------------|
|-2--------5-(5)-----8--|-2--------5-(5)--------|
|-0--0-5h7-------0-7----|-0--0-5h7-------0-5-3--|


                                      D.S.S. al Coda
  E5                            Bb5           Bb5   Bb5
                 PM       PM--|       PM----|   PM|
  E. S S S E +E  E S E.   S S S S +S  S S S S E S S E.
|-----------------------|-------------------------------|
|-----------------------|-------------------------------|
|-----------------------|-------------------------------|
|-----------------------|-------------------------------|
|-2--------5-(5)-----8--|-------8-(8)---------8-----8---|
|-0--0-5h7-------0-7----|-0-0-0-6-(6)-0-0-0-0-6-0-0-6---|


  &
  N.C.
  PM----------------------------------------------|
  E S S E S S E S S E S S   E S S E S S E S S E S S
|-------------------------|-------------------------|
|-------------------------|-------------------------|
|-------------------------|-------------------------|
|-------------------------|-------------------------|
|-------------------------|-------------------------|
|-0-0-0-0-0-0-0-0-0-0-0-0-|-0-0-0-0-0-0-0-0-0-0-0-0-|


   Bridge 2
                                                   D5G5 F#5
                                                             2/4
    Gtr I
    PM---------------------------------------|
    E   S S E S S E S S  E S S   E   S S E S S S S E  E E     E. E. E
||-----------------------------|---------------------------||----------|
||o----------------------------|--------------------------o||----------|
||-----------------------------|---------------------------||----------|
||-----------------------------|-------------------7-------||----------|
||o----------------------------|-------------------5--5-4-o||-2--1-----|
||--0---0-0-0-0-0-0-0-0--0-0-0-|-0---0-0-0-0-0-0-0----3-2--||-------3--|
|
|   Gtr II
|   S S E   E E   E E    E E     S S E   E E   E   E  E E     E. E. E
||-----------------------------|---------------------------||----------|
||o-----------8----------------|-----------8--------------o||----------|
||-----------------------------|---------------------------||----------|
||----------9-----8------------|---------9-----8--------9--||----------|
||o-----7-----------9---10-----|-----7-------------9-10---o||-2--1-----|
||--0-0--------------------7---|-0-0-----------------------||-------3--|


   4/4
    Gtrs I, II
        PM|     PM              PM|     PM
    S S E E S S E S S E E   S S E E S S E S S E E
||------------------------|-----------------------|
||o-----------------------|-----------------------|
||------------------------|-----------------------|
||----------4h5-----------|---------4h5-----------|
||o-5h7-----------5h7-7-7-|-5h7-----------5h7-7-7-|
||------0-0-----0---------|-----0-0-----0---------|


                                Bb5           Bb5   Bb5
      PM|     PM          PM--|       PM----|   PM|
  S S E E S S E S S E E   S S S S +S  S S S S E S S E.
|-----------------------|---------------------------------||
|-----------------------|--------------------------------o||
|-----------------------|---------------------------------||
|---------4h5-----------|---------------------------------||
|-5h7-----------5h7-7-7-|-------8-(8)---------8-----8----o||
|-----0-0-----0---------|-0-0-0-6-(6)-0-0-0-0-6-0-0-6-----||


  E5                      E5
                 PM                      PM
  E. S S S E +E  E S E.   E. S S S E +E  E S E.
|-----------------------|-----------------------|
|-----------------------|-----------------------|
|-----------------------|-----------------------|
|-----------------------|-----------------------|
|-2--------5-(5)-----8--|-2--------5-(5)--------|
|-0--0-5h7-------0-7----|-0--0-5h7-------0-5-3--|


  E5                      E5
                 PM                      PM
  E. S S S E +E  E S E.   E. S S S E +E  E S E.
|-----------------------|-----------------------|
|-----------------------|-----------------------|
|-----------------------|-----------------------|
|-----------------------|-----------------------|
|-2--------5-(5)-----8--|-2--------5-(5)--------|
|-0--0-5h7-------0-7----|-0--0-5h7-------0-5-3--|


 Outro - Guitar Solo
  E5
  Gtr I
                       PM                          PM
   E.  S  S S  E  +E   E     S E.   E. S S S E +E  E S E.
|---------------------------------|-----------------------|
|---------------------------------|-----------------------|
|---------------------------------|-----------------------|
|---------------------------------|-----------------------|
|--2-----------5--(5)----------8--|-2--------5-(5)--------|
|--0---0--5h7----------0-----7----|-0--0-5h7-------0-5-3--|
|
| Gtr II
|                                            ~~~~~~
|  E.  S  S S  E  +E   E     Q      E. S S S E +H
|---------------------------------|-----------------------|
|-12--12-10S8S10-(10)-10b12r10----|-8--8-7-8-5-(5)--------|
|---------------------------------|-----------------------|
|---------------------------------|-----------------------|
|---------------------------------|-----------------------|
|---------------------------------|-----------------------|


                       PM                          PM
   E.  S  S S  E  +E   E     S E.   E. S S S E +E  E S E.
|---------------------------------|-----------------------|
|---------------------------------|-----------------------|
|---------------------------------|-----------------------|
|---------------------------------|-----------------------|
|--2-----------5--(5)----------8--|-2--------5-(5)--------|
|--0---0--5h7----------0-----7----|-0--0-5h7-------0-5-3--|
|
|                                            ~~~~~~
|  E.  S  S S  E  +E   E     Q      E. S S S E +H
|---------------------------------|----------7-(7)--------|
|-12--12-10S8S10-(10)-10b12r10----|-8--8-7-8--------------|
|---------------------------------|-----------------------|
|---------------------------------|-----------------------|
|---------------------------------|-----------------------|
|---------------------------------|-----------------------|


  E5
                  PM                       PM
  E.  S S S E +E  E S E.   E.  S S S E +E  E S E.
|------------------------|------------------------|
|------------------------|------------------------|
|------------------------|------------------------|
|------------------------|------------------------|
|-2---------5-(5)-----8--|-2---------5-(5)--------|
|-0---0-5h7-------0-7----|-0---0-5h7-------0-5-3--|
|
|           ~~~~~~                   ~~~~~~
| Q     E   E +H           Q     E   E +H
|------------------------|------------------------|
|-5----------------------|-5---------5-(5)--------|
|-7b9---7---4-(4)--------|-7b9---7----------------|
|------------------------|------------------------|
|------------------------|------------------------|
|------------------------|------------------------|


                  PM                           PM
  E.  S S S E +E  E S E.   E.    S S S E   +E  E S E.
|------------------------|------------------------------|
|------------------------|------------------------------|
|------------------------|------------------------------|
|------------------------|------------------------------|
|-2---------5-(5)-----8--|-2-----------5---(5)----------|
|-0---0-5h7-------0-7----|-0-----0-5h7---------0-5-3----|
|
|           ~~~~~~                          ~~~
| Q     E   E +H           S S S S S S S S  H
|------------------------|------------------------------|
|-5----------------------|-8p0-7p0-5p0-4p0--5-----------|
|-7b9---7---4-(4)--------|------------------------------|
|------------------------|------------------------------|
|------------------------|------------------------------|
|------------------------|------------------------------|


  E5
  Gtrs I, II
                 PM                      PM
  E. S S S E +E  E S E.   E. S S S E +E  E S E.
|-----------------------|-----------------------|
|-----------------------|-----------------------|
|-----------------------|-----------------------|
|-----------------------|-----------------------|
|-2--------5-(5)-----8--|-2--------5-(5)--------|
|-0--0-5h7-------0-7----|-0--0-5h7-------0-5-3--|


                 PM       PM--|       PM----|   PM|
  E. S S S E +E  E S E.   S S S S +S  S S S S E S S E.
|-----------------------|-------------------------------*|
|-----------------------|-------------------------------*|
|-----------------------|-------------------------------*|
|-----------------------|-------------------------------*|
|-2--------5-(5)-----8--|-------8-(8)---------8-----8---*|
|-0--0-5h7-------0-7----|-0-0-0-6-(6)-0-0-0-0-6-0-0-6---*|



Duration Legend
---------------
W - whole; H - half; Q - quarter; E - 8th; S - 16th; T - 32nd; X - 64th; a - acciaccatura
+ - note tied to previous; . - note dotted; .. - note double dotted
Uncapitalized letters represent notes that are staccato (1/2 duration)
Irregular groupings are notated above the duration line
Duration letters will always appear directly above the note/fret number it represents the
duration for.  Duration letters with no fret number below them represent rests.  Multi-
bar rests are notated in the form Wxn, where n is the number of bars to rest for.  Low
melody durations appear below the staff

Tablature Legend
----------------
 h   - hammer-on
 p   - pull-off
 b   - bend
 pb  - pre-bend
 r   - bend release (if no number after the r, then release immediately)
 /\  - slide into or out of (from/to "nowhere")
 s   - legato slide
 S   - shift slide
 - natural harmonic
[n]  - artificial harmonic
n(n) - tapped harmonic
 ~   - vibrato
 tr  - trill
 T   - tap
 TP  - trem. picking
 PM  - palm muting
\n/  - tremolo bar dip; n = amount to dip
 \n  - tremolo bar down
 n/  - tremolo bar up
/n\  - tremolo bar inverted dip
 =   - hold bend; also acts as connecting device for hammers/pulls
 <> - volume swell (louder/softer)
 x   - on rhythm slash represents muted slash
 o   - on rhythm slash represents single note slash

Misc Legend
-----------
 |  - bar
||  - double bar
||o - repeat start
o|| - repeat end
*|  - double bar (ending)
 :  - bar (freetime)
 $  - Segno
 &  - Coda
Tempo markers -  = BPM(8/16=s8/s16), where s8 = swing 8ths, s16 = swing 16ths

Tap to rate this tab
# A B C D E F G H I J K L M N O P Q R S T U V W X Y Z