Guitaretab - guitar tabs
Song name
# A B C D E F G H I J K L M N O P Q R S T U V W X Y Z

At The Throne Of Judgment - The Blood Flow tab

This is my tab of "The Blood Flow" from At the Throne of Judgment.

I just figured out one of both guitars, I hope it's helpful for you to play the song! :)

I'm quite sure that it's right (90%), but I'm still looking forward to your comments & 
maybe you find something that could be wrong in your opinion!

Tuning: Drop-C
[ Tab from: http://www.guitaretab.com/a/at-the-throne-of-judgment/176932.html ]
I
|-----------------------------------------------------------------------------|
|-----------------------------------------------------------------------------|
|-----------------------------------------------------------------------------|
|-0~--------------------------------------------------------------------------|
|-0~--3-5----------3---0------------------------------------------------------|
|-0~------6-5-3--0---0---0-3--------------------------------------------------|
                 *   *   *
II (schreddern)
|-----------------------------------------------------------------------------|
|-----------------------------------------------------------------------------|
|-----------------------------------------------------------------------------|
|-----------------------------------------------------------------------------|
|-333333-222222-0000000----33333--555555--------------------------------------|
|-333333-222222-0000000-------------------666666--5555555---------------------|
  ****** ****** *******
III
|-----------------------------------------------------------------------------|
|-----------------------------------------------------------------------------|
|-----------------------------------------------------------------------------|
|-----------------------------------------------------------------------------|
|-333-222-00-----3--5---------------------------------------------------------|
|-333-222-00------------6--5--------------------------------------------------|
  *** *** **
IV           3x
|-----------|-----------------------------------------------------------------|
|-----------|-----------------------------------------------------------------|
|-----------|-----------------------------------------------------------------|
|-----------|-----------------------------------------------------------------|
|-333-222-0-|-00----00-00----00----00-------00-00----3065-00------------------|
|-333-222-0-|-00----00-00----00----00-------00-00----3065-00------------------|
  *** *** *   **    ** **    **    **       ** **    **** **
v
|-----------------------------------------------------------------------------|
|-----------------------------------------------------------------------------|
|-----------------------------------------------------------------------------|
|-----------------------------------------------------------------------------|
|---0-------0-------8~-------5~-----5-----------------------------------------|
|---0-------0-------8~-------5~-----5-----------------------------------------|

VI
|------------------------------------------------------------------------>
|------------------------------------------------------------------------>
|------------------------------------------------------------------------>
|---------------------------------------------------10-----8-7-5--------->
|---12-----10-8-5----5h7p5--12-----10-8-5----7h8h7---------------7h8p7--->
|-----00000--0-0-0000---------00000--0-0-0000---------88888-8-8---------->
      *****  * * ****         *****  * * ****         ***** * *
|-----------------------------------------------------------------------------|
|-----------------------------------------------------------------------------|
|-----------------------------------------------------------------------------|
|---7-----5-------------------------------------------------------------------|
|-----------------------------------------------------------------------------|
|----55555-0000---------------------------------------------------------------|
     ***** ****
VII, Fastruns:
2x
|------------------------------------|----------------------------------------------------|
|------------------------------------|----------------------------------------------------|
|------------------------------------|----------------------------------------------------|
|------------------------------------|-10-----------887755----7-------5~------------------|
|-12-888888888-121212-101010-888-7~--|--------------------7~------------------------------|
|------------------------------------|---888888888-------------5555555--------------------|

VIII
|-----------------------------------------------------------------------------|
|-----------------------------------------------------------------------------|
|-----------------------------------------------------------------------------|
|-----------------------------------------------------------------------------|
|-00---00-00-00---00-00-88---88-88-55---55-55-00---00-------------------------|
|-00---00-00-00---00-00-88---88-88-55---55-55-00---00-------------------------|
  **   ** ** **   ** ** **   ** ** **   ** ** **   **

VII
I
II
III
IV


Sometimes perhaps it's a little bit hard to understand, but I think those people like 
who want to play ATTOJ are able to read such a tab, as I wrote it.

Listen to the song carefully while reading this tab to get the details.

When you like this tab and when it helped you a lot, make a comment and I'm going to 
more tabs of ATTOJ-Songs!


Thanks!
Related for The Blood Flow tab