Song name
# A B C D E F G H I J K L M N O P Q R S T U V W X Y Z

At The Throne Of Judgment - Tomb Of The Thracians tab

This is modified for drop C not C standard

so its basically in Drop c for all you lazy bastards :P

-----------------------------------------------------|
-19-14----14-17-14----14-15-14----14-17-14----14-----|
-------14----------14----------14----------14--------| x2
-----------------------------------------------------|
-----------------------------------------------------|
-----------------------------------------------------|


-------------16----------17----------19--------------|
-19-14----14----14----14----14----14----14----14-----|
-------14----------14----------14----------14--------|
-----------------------------------------------------|
-----------------------------------------------------|
-----------------------------------------------------|


-21-19-17-21-19-17-----------------------------------------|
-------------------21-19-17-21-19-17-----------------------|
-------------------------------------19-18-16--------------|
----------------------------------------------19-18-16-----|
-----------------------------------------------------------|
-----------------------------------------------------------|


Do that whole section twice.
Then the harmonized part..

Guitar 1
-21p19p17p21p19p17------------------------------------------|
------------------------------------------------------------|
-------------------18--16-18-h19-18-16----------------------|
---------------------------------------19--18---------------|
------------------------------------------------------------|
------------------------------------------------------------|


Guitar 2
-17p16p14p17p16p14--------------------------------------------|
--------------------------------------------------------------|
-------------------14--13-14-h16-14-13------------------------|
---------------------------------------16-15------------------|
--------------------------------------------------------------|
--------------------------------------------------------------|


Guitar 1
----------------17-21---19-21-s22-21-19------------------------|
-------------19-------------------------21---------------------|
----------18---------------------------------------------------|
-------19------------------------------------------------------|
-17-21---------------------------------------------------------|
---------------------------------------------------------------|

Guitar 2
----------------14-17---16-17-s19-17-16------------------------|
-------------15-------------------------18---------------------|
----------14---------------------------------------------------|
-------16------------------------------------------------------|
-14-17---------------------------------------------------------|
---------------------------------------------------------------|


Guitar 1
-21p19p17p21p19p17------------------------------------------|
------------------------------------------------------------|
-------------------18--16-18-h19-18-18----------------------|
---------------------------------------19--18---------------|
------------------------------------------------------------|
------------------------------------------------------------|


Guitar 2
-17p16p14p17p16p14--------------------------------------------|
--------------------------------------------------------------|
-------------------14--13-14-h16-14-13------------------------|
---------------------------------------16-15------------------|
--------------------------------------------------------------|
--------------------------------------------------------------|

Guitar 1
----------------17-21---19-21-s22-21-19-24---------------------|
-------------19------------------------------------------------|
----------18---------------------------------------------------|
-------19------------------------------------------------------|
-17-21---------------------------------------------------------|
---------------------------------------------------------------|


Guitar 2
----------------14-17---16-17-s19-17-16-21---------------------|
-------------15------------------------------------------------|
----------14---------------------------------------------------|
-------16------------------------------------------------------|
-14-17---------------------------------------------------------|
---------------------------------------------------------------|
Tap to rate this tab
# A B C D E F G H I J K L M N O P Q R S T U V W X Y Z