Guitaretab - guitar tabs
Song name
# A B C D E F G H I J K L M N O P Q R S T U V W X Y Z

Atahualpa Yupanqui - Chan Chan tab

----------------------------------------------------------------------------
			     SONG NAME - Band Name
----------------------------------------------------------------------------
Tabbed by:
Email:

Tuning:
  this is the main riff
e|-------------------------------------------------------------------------|
B|-------------------------------------------------------------------------|
G|-7--10--10--9--7--6-6\9--7--6--------6\7--10--10--9--7--6--6\9--7--6-----|
D|-------------------------------------------------------------------------|
A|-------------------------------------------------------------------------|
E|-------------------------------------------------------------------------|
  just play this then every so often throw this in at the end
e|-------------------------------------------------------------------------|
B|-10--8-------------------------------------------------------------------|
G|--------10--9--7---------------------------------------------------------|
D|-------------------------------------------------------------------------|
A|-------------------------------------------------------------------------|
E|-------------------------------------------------------------------------|

ok heres the solo if youv never heard this before its got a spanish guitar feel to it
[ Tab from: http://www.guitaretab.com/a/atahualpa-yupanqui/150680.html ]
   rake                                rake
e|-----5--5-5-------------3-3-3-5-6-5------5--5-5--------------------------|
B|----6-------6-6-------------------------6-------6-6----------------------|
G|---7------------5--5-------------------7------------5--5-----------------|
D|--7-----------------------------------7----------------------------------|
A|-------------------------------------------------------------------------|
E|-------------------------------------------------------------------------|
                                                     gets faster
e|-------------------------------------8-------8-10------------------------|
B|----------------------------------10------10------11-10-8----8-----------|
G|------------7-9-10-9---9-10----10------10-----------------10---9---------|
D|-7-8-7-8-7------------------10-------------------------------------------|
A|-------------------------------------------------------------------------|
E|-------------------------------------------------------------------------|

e|-------------------------------------------------------------------------|
B|-------------------------------8---10-8----------------------------------|
G|---------------------------7-----7------7---6-7--------------------------|
D|-10-7------------------7-8---8------------9------------------------------|
A|------10-8-7-8--7-8-10---------------------------------------------------|
E|-------------------------------------------------------------------------|

it goes back into the main riff then i think i gotr it all down this is my first tab if 
know the song let me know if i got it right if not try and look this song up this is a 
solo to learn weather your learning or if your better than me


| /  slide up
| \  slide down
| h  hammer-on
| p  pull-off
| ~  vibrato
| +  harmonic
| x  Mute note
===============================================================================
Related for Chan Chan tab