Song name
# A B C D E F G H I J K L M N O P Q R S T U V W X Y Z

Atahualpa Yupanqui - Guitarra Dimelo Tu tab

----------------------------------------------------------------------------
		Guitarra, dimelo tu - Atahualpa Yupanqui
-------------------------------------------------------------------------
Tabbed by:*chief*
Email:gardner.mike@hotmail.co.uk

Tuning:Drop D

This is just the intro literally up until he starts singing I just figured it out and 
try to get round to the rest in the future.

e|-------------------------------------------------|
B|----9----------9-------------7--------7----------|
G|-------10---------10------------8--------8-----8-|
D|-----------12---------12-----------8--------8----|
A|-------------------------------------------------|
D|-0------------------------0----------------------|

e|------------------------------6--------------6----|
B|----6--------6-------------------7--------7-----7-|
G|-------7--------7-----7-------------8--8----------|
D|----------8--------8------------------------------|
A|--------------------------------------------------|
E|-7-------------------------0----------------------|

e|----------------------------------7--------7----------|
B|----9----------9---------------------8--------8-----8-|
G|-------10---------10------10------------8--------8----|
D|-----------12---------12------------------------------|
A|------------------------------------------------------|
E|-0-----------------------------0----------------------|

e|-------------------------------------------------------------------------|
B|----6--------6----------------------7-----------------6------------------|
G|-------7--------7-----7----------8--------8--------7--------7------------|
D|----------8--------8----------8--------8--------8--------8---------------|
A|-------------------------------------------------------------------------|
E|-7-----------------------0-------------------0---------------------------|

e|----------------------------------------|
B|----------7------------------6----------|
G|-------8--------8---------7--------7----|
D|----8--------8---------8--------8-------|
A|----------------------------------------|
E|-7------------------7-----------------0-|


| /  slide up
| \  slide down
| h  hammer-on
| p  pull-off
| ~  vibrato
| +  harmonic
| x  Mute note
===============================================================================
Tap to rate this tab
 
# A B C D E F G H I J K L M N O P Q R S T U V W X Y Z