Song name
# A B C D E F G H I J K L M N O P Q R S T U V W X Y Z

Ataraxia - Scarlet Leaves tab

SCARLET LEAVES From "Historiae":
Tabbed By Atef Oowais Ali Parda

e:-0-2-3-5--5-0-5-2---0-|--n12--|--n12-|-7-7-5-3-2---0-2---0-0-|
B:-1---0-5-5--0-5-3---0-|-------|------|-8-7-5-0-3---0-3---0---|
G:-2---0-5----0-5-2---0-|-------|------|-9-7-5-0-2---0-2---0---|
D:-2---2-2----2-2-4-0-2-|-------|------|-9-9-7-2-4-0-2-4-0-2---|
A:----------------------|-----0-|------|-----------------------|
E:----------------------|-0-----|-0----|-----------------------|
  [                     [1.     [2.    ] x2#################


                                                 ...
e:-3-2-0-2---5-3-2-0-3-2-0-2---0-|--n12--|--n12-|---|
B:-0-----3---5-----0-0-----3---0-|-------|------|---|
G:-0-----2---5-----0-0-----2---0-|-------|------|---|
D:-2-----4-0-2-----2-2-----4-0-2-|-------|------|---|
A:-------------------------------|-----0-|------|---|
E:-------------------------------|-0-----|-0----|---|
  [                              [1.     [2.    ]


  3:03                       ...
e:-0---3---------0---3--5-5-|---|
B:-1--3-3-1---0--1--3-3-5---|---|
G:-0--0---2-2-1--0--0---6---|---|
D:(2)-0---2---2-(2)-0---7---|---|
A:-3--2---0---2--3--2-------|---|
E:--------------------------|---|
  x2...                  ...


Tap to rate this tab
 
# A B C D E F G H I J K L M N O P Q R S T U V W X Y Z