Guitaretab - guitar tabs
Song name
# A B C D E F G H I J K L M N O P Q R S T U V W X Y Z

Atari Teenage Riot - Teenage Fucking Riot tab

/ means slide 
p.m means palm mute 

Intro 

Guitar2 
e|---------------------------------------------| 
B|---------------------------------------------| 
G|-5-x8--4-x8----------------------------------| 
D|-5-----4-----7-7---/--5-5---/-3-x4--6-x5--5--| 
A|-3-----2-----7-7--/---5-5--/--3-----6-----5--| 
E|-------------5-5-/----3-3-/---1-----4-----3--| 

Guitar1 
e|---------------------------------------------| 
B|--------------5-6-5-------3-5-3--------------| 
G|--------------------7-5----------------------| 
D|---------------------------------------------| 
A|---------------------------------------------| 
E|---------------------------------------------| 

Verse 

Guitar1+2 
e|--------------------------------------------------------------------> 
B|--------------------------------------------------------------------> 
G|-5-5-5-5-5-5-5-5--4-4-4-4-4-4-4-4-----------------------------------> 
D|-5-5-5-5-5-5-5-5--4-4-4-4-4-4-4-4--7-7-7-7-7-7-7-7--5-5-5-5-5-5-5-5-> 
A|-3-3-3-3-3-3-3-3--2-2-2-2-2-2-2-2--7-7-7-7-7-7-7-7--5-5-5-5-5-5-5-5-> 
E|-----------------------------------5-5-5-5-5-5-5-5--3-3-3-3-3-3-3-3-> 
pm................................................................... 

e|--------------------------------| 
B|--------------------------------| 
G|--------------------------------| 
D|-3-3-3-3-3-3-3-3---6-6-6-6-6--5-| 
A|-3-3-3-3-3-3-3-3---6-6-6-6-6--5-| 
E|-1-1-1-1-1-1-1-1---4-4-4-4-4--3-| 
.................. 

e|--------------------------------------------------------------------> 
B|--------------------------------------------------------------------> 
G|-5-5-5-5-5-5-5-5--4-4-4-4-4-4-4-4-----------------------------------> 
D|-5-5-5-5-5-5-5-5--4-4-4-4-4-4-4-4--7-7-7-7-7-7-7-7--5-5-5-5-5-5-5-5-> 
A|-3-3-3-3-3-3-3-3--2-2-2-2-2-2-2-2--7-7-7-7-7-7-7-7--5-5-5-5-5-5-5-5-> 
E|-----------------------------------5-5-5-5-5-5-5-5--3-3-3-3-3-3-3-3-> 

e|--------------------------------| 
B|--------------------------------| 
G|--------------------------------| 
D|-3-3-3-3-3-3-3-3---6-6-6-6-6--5-| 
A|-3-3-3-3-3-3-3-3---6-6-6-6-6--5-| 
E|-1-1-1-1-1-1-1-1---4-4-4-4-4--3-| 

Pre-chorus 

Guitar1+2 
e|------------------------------------------------------------------------> 
B|------------------------------------------------------------------------> 
G|-------------------5-5-5-5---------------------------5-5-5-5-5-----5----> 
D|-2-2-2-2--3-3-3-3--5-5-5-5--4-4-4-4---3-3-3-3--6--5--5-5-5-5-5--5--5--5-> 
A|-2-2-2-2--3-3-3-3--3-3-3-3--4-4-4-4---3-3-3-3--6--5--3-3-3-3-3--5--3--5-> 
E|-0-0-0-0--1-1-1-1-----------2-2-2-2---1-1-1-1--4--3-------------3-----3-> 

e|------------------------------------------------| 
B|------------------------------------------------| 
G|-------------------5-5-5-5----------------------| 
D|-2-2-2-2--3-3-3-3--5-5-5-5--4-4-4-4--3-3-3-3--5-| 
A|-2-2-2-2--3-3-3-3--3-3-3-3--4-4-4-4--3-3-3-3--5-| 
E|-0-0-0-0--1-1-1-1-----------2-2-2-2--1-1-1-1--3-| 

Chorus 

Guitar1+2 
e|--------------------------------------------------------------------> 
B|--------------------------------------------------------------------> 
G|-5-5-5-5-5-5-5-5--4-4-4-4-4-4-4-4-----------------------------------> 
D|-5-5-5-5-5-5-5-5--4-4-4-4-4-4-4-4--7-7-7-7-7-7-7-7--5-5-5-5-5-5-5-5-> 
A|-3-3-3-3-3-3-3-3--2-2-2-2-2-2-2-2--7-7-7-7-7-7-7-7--5-5-5-5-5-5-5-5-> 
E|-----------------------------------5-5-5-5-5-5-5-5--3-3-3-3-3-3-3-3-> 

e|--------------------------------| 
B|--------------------------------| 
G|--------------------------------| 
D|-3-3-3-3-3-3-3-3---6-6-6-6-6--5-| 
A|-3-3-3-3-3-3-3-3---6-6-6-6-6--5-| 
E|-1-1-1-1-1-1-1-1---4-4-4-4-4--3-| 
                                   Guitar2 
e|-------------------------------------------------------------> 
B|-------------------------------------------------------------> 
G|-5-5-5-5-5-5-5-5--4-4-4-4-4-4-4-4----------------------------> 
D|-5-5-5-5-5-5-5-5--4-4-4-4-4-4-4-4--7-7---/--5-5---/-3-3-3-3--> 
A|-3-3-3-3-3-3-3-3--2-2-2-2-2-2-2-2--7-7--/---5-5--/--3-3-3-3--> 
E|-----------------------------------5-5-/----3-3-/---1-1-1-1--> 

Guitar1 
e|--------------------------------------------------------------------| 
B|-------------------------------------5-6-5-------3-5-3--------------| 
G|-------------------------------------------7-5----------------------| 
D|--------------------------------------------------------------------| 
A|--------------------------------------------------------------------| 
E|--------------------------------------------------------------------| 

Guitar2 
e|--------------| 
B|--------------| 
G|--------------| 
D|-6-6-6-6-6--5-| 
A|-6-6-6-6-6--5-| 
E|-4-4-4-4-4--3-| 

Verse 

Pre-chorus 

Fill 

Guitar2 
e|--------------------------------------------------------------| 
B|--------------------------------------------------------------| 
G|--------------------------------------------------------------| 
D|-7-7-7-7--9-9-9-9--10-10-10-10--12-12-12-12--15-15-15-15--12--| 
A|-7-7-7-7--9-9-9-9--10-10-10-10--12-12-12-12--15-15-15-15--12--| 
E|-5-5-5-5--7-7-7-7---8--8--8--8--10-10-10-10--13-13-13-13--10--| x4 

Guitar1 
e|--------------------------------------------------------------------------| 
B|--------------------------------------------------------------------------| 
G|--------------------------------------------------------------------------| 
D|-7-7-7-7--9-9-9-9--15-15-15-15--14--10-10-10-10--12-12-12-12-12-12-12--10-| 
A|-7-7-7-7--9-9-9-9--15-15-15-15--14--10-10-10-10--12-12-12-12-12-12-12---8-| 
E|-5-5-5-5--7-7-7-7--13-13-13-13--12---8--8--8--8--10-10-10-10-10-10-10---8-| 

Play this after the 2nd guitar has done the first fill. Play only once. 

Chorus 
(First part played without guitars, on the second part the guitars come in) 

                                 THE END 
=============================================================================
[ Tab from: http://www.guitaretab.com/a/atari-teenage-riot/25755.html ]
Related for Teenage Fucking Riot tab