Song name
# A B C D E F G H I J K L M N O P Q R S T U V W X Y Z

Ataris - Choices tab

-----------------------------------------------------------------
Choices - The Ataris
-----------------------------------------------------------------
Tabbed by: Bair
Email: bair_morritt@hotmail.com
Tuning: Standard

**Another 1:30 minute repeating type of song that hasn't been tabbed yet**

Intro:
e|------------------------------------------|
B|------------------------------------------|
G|--7777------------------------------------|
D|--7777--2222--5555--7777-(X2)-------------|
A|--5555--2222--5555--7777------------------|
E|--------0000--3333--5555------------------|

Verse:
e|------------------------------------------|
B|------------------------------------------|
G|--7777------------------------------------|
D|--7777--2222--5555--7777-(X2)-------------|
A|--5555--2222--5555--7777------------------|
E|--------0000--3333--5555------------------|
"Well I've got a couple things to say about a guy and a girl"

Chorus
e|------------------------------------------------------|
B|------------------------------------------------------|
G|----------------77--66--44--22------------------------|
D|--X5555--X7777--77--66--44--22--X5555--77-(LET-RING)--|
A|--X5555--X7777--55--44--22--00--X5555--77-------------|
E|--X3333--X5555------------------X3333--55-------------|
"I know you've heard it all before...."

-Then Intro

Verse 2:
e|------------------------------------------|
B|------------------------------------------|
G|--7777------------------------------------|
D|--7777--2222--5555--7777-(X2)-------------|
A|--5555--2222--5555--7777------------------|
E|--------0000--3333--5555------------------|
"Well I met a girl I thought I loved but, unfortunately"

-Then Chorus
-Then Intro (X3)
-Then Chorus

Outro:
e|------------------------------------------|
B|------------------------------------------|
G|--7---------------------------------------|
D|--7--2--5--7--(Let-ALL-Notes-Ring)--------|
A|--5--2--5--7------------------------------|
E|-----0--3--5------------------------------|
"If you think you've found that one...."
_____________________________________________________________________________
Lyrics:

Well I've got a couple things to say about a guy and a girl
They met a few months back at a coffeehouse
He said 'I like that dress that you're wearing
Why don't you just let me take you home tonight?"

I know you've heard it all before
And everyone makes mistakes these days... hey nobody's perfect
But the choices that you make may involve someone else.

Well I met a girl I thought I loved but, unfortunately
I guess I didn't take the time to get to know that girl
Before I made a lot of choices
That I wasn't prepared to make.

If you think you've found that one
That you really love...
Make sure they love you back.
Tap to rate this tab
# A B C D E F G H I J K L M N O P Q R S T U V W X Y Z