Song name
# A B C D E F G H I J K L M N O P Q R S T U V W X Y Z

Ataris - Ps The Scene Is Dead tab

Help us improve GuitareTab! Take a short survey!
-----------------------------------------------------------------
P.S The Scene Is Dead - The Ataris
-----------------------------------------------------------------
Tabbed by: Bair
Email: bair_morritt@hotmail.com

Tuning: Standard

**Had a little extract time and noticed this wasn't tabbed yet. It's 32 seconds long.**

e|------------------------------------------|
B|------------------------------------------|
G|--77777777--33333333------------22222222--|
D|--77777777--33333333--33333333--22222222--|
A|--55555555--11111111--33333333--00000000--|
E|----------------------11111111------------|
"Do you know what it's like to live somewhere...."

e|------------------------------------------|
B|------------------------------------------|
G|--77777777--33333333------------22222222--|
D|--77777777--33333333--33333333--22222222--|
A|--55555555--11111111--33333333--00000000--|
E|----------------------11111111------------|
"No place for you to go and see a punk rock show...."

e|-------------------------------------------------------|
B|-------------------------------------------------------|
G|-------3-2-3-2-------3-2-3-2-------3-2-3-2----------0--|
D|--5555-3-2-3-2--5555-3-2-3-2--5555-3-2-3-2--5-5-5-5/0--|
A|--5555-1-0-1-0--5555-1-0-1-0--5555-1-0-1-0--5-5-5-5/0--|
E|--3333----------3333----------3333----------3-3-3-3/0--|
"Not gonna live in a small town. Not gonna die in a small town...."

--------------------------------------------------------------
Lyrics:

Do you know what its like
To live somewhere that sucks?
And everyone tries to bring you down.
No place for you to go
And see a punk rock show.
And spend your whole life trying to get out.
Not gonna live in a small town
Not gonna die in a small town
Everywhere's a fucking small town
Get out while you're young
Related for Ps The Scene Is Dead tab