Song name
# A B C D E F G H I J K L M N O P Q R S T U V W X Y Z

Ataris - Better Way tab

-----------------------------------------------------------------
Better Way - The Ataris
-----------------------------------------------------------------
Tabbed by: Bair
Email: bair_morritt@hotmail.com
Tuning: Standard

**I noticed that there was only a bass tab for this song, so here you go**

Intro:
e|------------------------------------------------|
B|------------------------------------------------|
G|--5555-5555-22222222--7777-7777-----------------|
D|--5555-5555-22222222--7777-7777--55555555-(X2)--|
A|--3333-2222-00000000--5555-4444--55555555-------|
E|---------------------------------33333333-------|
"Looking for a place to call my home...."

Pre-Chorus:
e|------------------------------------------|
B|------------------------------------------|
G|------------55-44-22----------------------|
D|--3333-5555-55-44-22-3333-5---------------|
A|--3333-5555-33-22-00-3333-5---------------|
E|--1111-3333----------1111-3---------------|
"So I drive around and pray that I will make it through today"

Chorus:
e|------------------------------------------|
B|------------------------------------------|
G|--5555------2222--------------------------|
D|--5555-2222-2222-5555-33333333-55555555---|
A|--3333-2222-0000-5555-33333333-55555555---|
E|-------0000------3333-11111111-33333333---|

Riff at End:
e|---------------|
B|--6-5---5-3----|
G|------5--------|
D|---------------|
A|---------------|
E|---------------|

Verse:
e|------------------------------------------------|
B|------------------------------------------------|
G|--5555-5555-22222222--7777-7777-----------------|
D|--5555-5555-22222222--7777-7777--55555555-(X2)--|
A|--3333-2222-00000000--5555-4444--55555555-------|
E|---------------------------------33333333-------|
"You miss your wife you miss your little girl...."

-Then Pre-Chorus
-Then Chorus

Solo:
e|-------------------------------------------------------|
B|--------------------------6-5-3-5-666-5-3-----5-3-1-0--|
G|--55555-4-55555-7-55555-4-----------------5-5----------|
D|-------------------------------------------------------|
A|-------------------------------------------------------|
E|-------------------------------------------------------|

e|-1-33333---33333---33333-1-0-----------0----|
B|---------1-------1-----------3-1-1---1---3--|
G|-----------------------------------0--------|
D|--------------------------------------------|
A|--------------------------------------------|
E|--------------------------------------------|

-Then Verse
-Then Pre-Chorus

End On:
e|---------------------|
B|--5------------------|
G|--x--(Let-Ring)------|
D|--5------------------|
A|--3------------------|
E|---------------------|
"....way"
Tap to rate this tab
# A B C D E F G H I J K L M N O P Q R S T U V W X Y Z