Song name
# A B C D E F G H I J K L M N O P Q R S T U V W X Y Z

Ataris - Are We Ther Yet? tab

~ = Let Ring

      *The timing is off, just listen to the song to figure out the rhythm.
e|---------------------------------------------------------------------------|
B|---------------------------------------------------------------------------|
G|------------------------------4-4-4-4-4------------------------------------|
D|--4~~--4----------------------4-4-4-4-4--6-6-6-6-6--2-2-2-2-2--4-4-4-4-4---|
A|--4~~--4----------------------2-2-2-2-2--6-6-6-6-6--2-2-2-2-2--4-4-4-4-4---|
E|--2~~--2---------------------------------4-4-4-4-4--0-0-0-0-0--2-2-2-2-2---|
           I think that we're lost again.....  

e|---------------------------------------------------------------------------|
B|---------------------------------------------------------------------------|
G|--4-4-4-4-4-4---------------9-9-9-9-9--10-10-10-10-------------------------|
D|--4-4-4-4-4-4--6-6-6-6-6-6--9-9-9-9-9--10-10-10-10-------------------------|
A|--2-2-2-2-2-2--6-6-6-6-6-6--7-7-7-7-7---9--9--9--9-------------------------|
E|---------------4-4-4-4-4-4-------------------------------------------------|
     We're running out of gas....           and the sun is going

e|---------------------------------------------------------------------------|
B|---------------------------------------------------------------------------|
G|--4-4-4-4-4----------------------------------------------------------------|
D|--4-4-4-4-4--6-6-6-6-6--2-2-2-2-2--4-4-4-4-4-------------------------------|
A|--2-2-2-2-2--6-6-6-6-6--2-2-2-2-2--4-4-4-4-4-------------------------------|
E|-------------4-4-4-4-4--0-0-0-0-0--2-2-2-2-2-------------------------------|
down..down..down. Time to turn around


e|---------------------------------------------------------------------------|
B|---------------------------------------------------------------------------|
G|--4-4-4-4-4-4---------------9-9-9-9-9--10-10-10-10-------------------------|
D|--4-4-4-4-4-4--6-6-6-6-6-6--9-9-9-9-9--10-10-10-10-------------------------|
A|--2-2-2-2-2-2--6-6-6-6-6-6--7-7-7-7-7---9--9--9--9-------------------------|
E|---------------4-4-4-4-4-4-------------------------------------------------|

  (play 2x):
e|---------------------------------------------------------------------------|
B|---------------------------------------------------------------------------|
G|--9-9-9-9-9--10-10-10-10---------------------------------------------------|
D|--9-9-9-9-9--10-10-10-10--9-9-9-9-9-9--------------------------------------|
A|--7-7-7-7-7---9--9--9--9--9-9-9-9-9-9--------------------------------------|
E|--------------------------7-7-7-7-7-7--------------------------------------|

   *The song has the same chord progressions throughout the rest of it, 
   the chords might change around sometimes, but it's not hard to figure 
   it out.
Tap to rate this tab
# A B C D E F G H I J K L M N O P Q R S T U V W X Y Z