Song name
# A B C D E F G H I J K L M N O P Q R S T U V W X Y Z

Ataris - Alone In Santa Cruz tab

INTRO:
e|---------------------------------------------------------------------------|
B|---------------------------------------------------------------------------|
G|--9999999999999--9-9-8-----------------------------------------------------|
D|--9999999999999--9-9-8-----------------------------------------------------|
A|--7777777777777--7-7-6-----------------------------------------------------|
E|---------------------------------------------------------------------------|

VERSE: (2x)
e|---------------------------------------------------------------------------|
B|---------------------------------------------------------------------------|
G|--7-777-9999-14141414-11111111-7777-9999------99998------------------------|
D|--7-777-9999-14141414-11111111-7777-9999-7777-99998------------------------|
A|--5-555-7777-12121212--9-9-9-9-5555-7777-7777-77776------------------------|
E|-----------------------------------------5555------------------------------|

CHORUS: (4x)
e|---------------------------------------------------------------------------|
B|---------------------------------------------------------------------------|
G|-11111111--6-66-7-77-9-99--------------------------------------------------|
D|-11111111--6-66-7-77-9-99--------------------------------------------------|
A|--9-9-9-9--4-44-5-55-7-77--------------------------------------------------|
E|---------------------------------------------------------------------------|

SOLO:
e|--9-10-12-----------9-10-9-------------------------------------------------|
B|----------12--10-12--------12-10--10-9--------9----------------------------|
G|---------------------------------------11--11---9--9----9-9~---------------|
D|-----------------------------------------------------11--------------------|
A|---------------------------------------------------------------------------|
E|---------------------------------------------------------------------------|

SOLO: (CONT.)
e|--9--9-10-16--14-16-17171717171717-16-14-9-10-9-----------^9---------------|
B|------------------------------------------------10-9--9-12---12-10\--------|
G|---------------------------------------------------------------------------|
D|---------------------------------------------------------------------------|
A|---------------------------------------------------------------------------|
E|---------------------------------------------------------------------------|
Tap to rate this tab
# A B C D E F G H I J K L M N O P Q R S T U V W X Y Z