Song name
# A B C D E F G H I J K L M N O P Q R S T U V W X Y Z

Ataris - 1*15*96 tab

Help us improve GuitareTab! Take a short survey!
GUITAR 1 (JUST REPEAT THIS)(YOU CAN EVEN PLAY THIS AS AN OCTAVE LIKE
10/10/12 10/10/11
e|---------------------------------------------------------------------------|
B|---------------------------------------------------------------------------|
G|--12P11-12P11-12P11-12P11-12P11-12P11-12P11-12P11-12P11-12P11-12P11-12P11--|
D|---------------------------------------------------------------------------|
A|---------------------------------------------------------------------------|
E|---------------------------------------------------------------------------|

GUITAR 2(THEY USED 3 GUITARS TO RECORD THIS SONG THE CHORD THAT I WROTE
DOWN IN THIS PART IS THE 3RD GUITAR SO I JUST USED THAT INSTEAD OF THE
STRING PART..I THINK IT SOUNDS BETTER THAT WAY ANYWAYS)(REPEAT TWICE)
e|---------------------------------------------------------------------------|
B|---------------------------------------------------------------------------|
G|--171717-151515-131313-121212-9-99-77-5------------------------------------|
D|------------------------------9-99-77-5------------------------------------|
A|------------------------------7-77-55-3------------------------------------|
E|---------------------------------------------------------------------------|

e|---------------------------------------------------------------------------|
B|---------------------12H13-12-12--12--11--11-------------------------------|
G|--171717-151515-1313-----------13--13---12--12-----------------------------|
D|---------------------------------------------------------------------------|
A|---------------------------------------------------------------------------|
E|---------------------------------------------------------------------------|

VERSE INTRO(REPEAT ONCE)
e|---------------------------------------------------------------------------|
B|---------------------------------------------------------------------------|
G|--12---------------12\5---------------55/12--------------------------------|
D|--12---------------12\5---------------55/12--------------------------------|
A|--10---------------10\3---------------33/10--------------------------------|
E|---------------------------------------------------------------------------|

VERSE (ONLY ONE GUITARE FOR THE BEGINNING)(PALM MUTE)(REPEAT)
e|---------------------------------------------------------------------------|
B|---------------------------------------------------------------------------|
G|------------5555555555/77--------------------------------------------------|
D|--555555555-5555555555/77--------------------------------------------------|
A|--555555555-3333333333/55--------------------------------------------------|
E|--333333333----------------------------------------------------------------|

GUITAR 2(COMES IN AFTER "I NEVER WILL FORGET")
e|---------------------------------------------------------------------------|
B|---------------------------------------------------------------------------|
G|--12P11-12P11-12P11-12P11-12P11-9-99-7-5-----------------------------------|
D|--------------------------------9-99-7-5-----------------------------------|
A|--------------------------------7-77-5-3-----------------------------------|
E|---------------------------------------------------------------------------|

CHORUS (THIS IS TAKING TO LONG SO THE REST I AM ONLY DOING GUITAR 1)
(THIS GOES STRAIGHT INTO VERSE)
e|---------------------------------------------------------------------------|
B|---------------------------------------------------------------------------|
G|-------5-7777-5------5-7777-5-9999-7-5555-7--------------------------------|
D|--5555-5-7777-5-5555-5-7777-5-9999-7-5555-7-5------------------------------|
A|--5555-3-5555-3-5555-3-5555-3-7777-5-3333-5-5------------------------------|
E|--3333----------3333------------------------3------------------------------|

BRIDGE(AFTER "OUR FIRST DATE")( I AM ONLY POSTING THE LOW GUITAR
FOR THE BRIDGE)(NOTICE THE SMALL CHANGE AFTER THE STOP)(REPEAT)
e|---------------------------------------------------------------------------|
B|---------------------------------------------------------------------------|
G|--999--999-9-7-5-555-555-7----------77|STOP|777----------------------------|
D|--999--999-9-7-5-555-555-7-555-555--77|----|775----------------------------|
A|--777--777-7-5-3-333-333-5-555-555--55|----|555----------------------------|
E|---------------------------333-333-----------------------------------------|
Related for 1*15*96 tab