Song name
# A B C D E F G H I J K L M N O P Q R S T U V W X Y Z

Ataris - The Boys Of Summer tab

Artist: The Ataris
Title:  The Boys Of Summer
Tabbed: Gibbsy87

Guitar 1

Intro
E|------------------------------------|
B|------------------------------------|
G|--8*--8*----4*--6*----4*--44444444--|
D|--8*--8*--8<4*--6*--6<4*--44444444--|
A|--6*--6*--6<2*--4*--4<2*--22222222--|
E|------------------------------------|

Verse
E|----------------------------------------------------|
B|----------------------------------------------------|
G|--88888-88888-88888-88888--44444-44444-44444-44444--|
D|--88888-88888-88888-88888--44444-44444-44444-44444--|
A|--66666-66666-66666-66666--22222-22222-22222-22222--|
E|----------------------------------------------------|

E|----------------------------------------------------|
B|----------------------------------------------------|
G|--66666-66666-66666-66666--44444-44444-44444-44444--|
D|--66666-66666-66666-66666--44444-44444-44444-44444--|
A|--44444-44444-44444-44444--22222-22222-22222-22222--|
E|----------------------------------------------------|

Chorus
E|-----------------------------------------|
B|-----------------------------------------|
G|------------66666666-66666666--44444444--|
D|--44444444--66666666-66666666--44444444--|
A|--44444444--44444444-44444444--22222222--|
E|--22222222-------------------------------|

Solo 1
(Same as Verse)

Verse 2
E|--------------------------------------------------------------------------|
B|--------------------------------------------------------------------------|
G|--8-88888888888888888888888888888888--4-44444444444444444444444444444444--|
D|--8-88888888888888888888888888888888--4-44444444444444444444444444444444--|
A|--6-66666666666666666666666666666666--2-22222222222222222222222222222222--|
E|--------------------------------------------------------------------------|
 PM   ................................    ................................

E|--------------------------------------------------------------------------|
B|--------------------------------------------------------------------------|
G|--6-66666666666666666666666666666666--4--4444444444444444444444444444444--|
D|--6-66666666666666666666666666666666--4--4444444444444444444444444444444--|
A|--4-44444444444444444444444444444444--2--2222222222222222222222222222222--|
E|--------------------------------------------------------------------------|
 PM   ................................     ...............................

Chorus

Solo 2
E|---------------------------------------------------|
B|---------------------------------------------------|
G|--4*--4*---------88888-88888-88888-8-10-11-13-11*--|
D|--4*--4*---------xxxxx-xxxxx-xxxxx-x-xx-xx-xx-xx*--|
A|--2*--2*-2>4-2*--66666-66666-66666-6--8--9-11--9*--|
E|---------------------------------------------------|

E|------------------------------------------------------------|
B|------------------------------------------------------------|
G|----------66666-66666-66666-66666--44444-44444-44444-44444--|
D|----------xxxxx-xxxxx-xxxxx-xxxxx--xxxxx-xxxxx-xxxxx-xxxxx--|
A|----------44444-44444-44444-44444--22222-22222-22222-22222--|
E|--1h2>4>6---------------------------------------------------|

Verse 3
E|-----------|
B|-----------|
G|--8*---4*--|
D|--8*-8<4*--|
A|--6*-6<2*--|
E|-----------|

E|--------------------------------------------------------------------------|
B|--------------------------------------------------------------------------|
G|----66666666666666666666666666666666-6<444444444444444444444444444444444--|
D|--4>66666666666666666666666666666666-6<444444444444444444444444444444444--|
A|--2>44444444444444444444444444444444-4<222222222222222222222222222222222--|
E|--------------------------------------------------------------------------|
 PM   ................................    ................................

Chorus Until End

End
E|------------------|
B|------------------|
G|------6*--6*--4*--|
D|--4*--6*--6*--4*--|
A|--4*--4*--4*--2*--|
E|--2*--------------|

Guitar 2

Intro
E|-----------|
B|-----------|
G|------6----|
D|--6h8---8--|
A|-----------|
E|-----------|

Intro 2/Verse
E|---------------------------|
B|--7-6---7-6---7-6---7-6----|
G|------6-----6-----6-----6--|
D|---------------------------|
A|---------------------------|
E|---------------------------|

Chorus
E|---------------------2-4-0*--|
B|--7*-------------------------|
G|----6*---6*----6*------------|
D|------6*---6*----6*----------|
A|-------------4*----4*--------|
E|-----------------------------|

Solo 1
E|------------------------------------------------------------------|
B|------------------------------------------------------------------|
G|--88888-88888-88888-8-10-11-13-11---------------------------------|
D|--xxxxx-xxxxx-xxxxx-x-xx-xx-xx-xx----------------------------6p4--|
A|--66666-66666-66666-6--8--9-11--9-------------------------1*------|
E|----------------------------------1h2>4>6-4*--2-1*--1-2-4---------|

Verse

Chorus

Solo 2
E|---------------------|
B|--44-22-00-4--4-2-0--|
G|---------------------|
D|---------------------|
A|---------------------|
E|---------------------|
 PM .. .. .. .  . . .

E|---------------------------------------|
B|--14^--9h11p9--14^--11<9--14^--9h11p9--|
G|---------------------------------------|
D|---------------------------------------|
A|---------------------------------------|
E|---------------------------------------|


E|--------------------------------------------|
B|--14^-6h7p6---------------------7--7h9>11*--|
G|------------6h8p6---6h8---8-8-8--8----------|
D|------------------8-------------------------|
A|--------------------------------------------|
E|--------------------------------------------|

Verse (Pause)

Chorus

Outro
E|--6-4-6-2---2--|
B|----------2----|
G|---------------|
D|---------------|
A|---------------|
E|---------------|
Tap to rate this tab
# A B C D E F G H I J K L M N O P Q R S T U V W X Y Z