Song name
# A B C D E F G H I J K L M N O P Q R S T U V W X Y Z

Ataris - Looking Back On Today tab

I found this in my files and thought it should be posted...i apoligize to the original author because i dont know who you are!

Intro:  Guitar 1 
e|---------------------------------------------------------------------------| 
B|----------------7-7-7-7-7-7-7-7-----------------0-0-0-0-0-0-0-0------------| 
G|9-9-9-9-9-9-9-9-8-8-8-8-8-8-8-8-6-6-6-6-6-6-6-6-2-2-2-2-2-2-2-2------------| 
D|9-9-9-9-9-9-9-9-9-9-9-9-9-9-9-9-6-6-6-6-6-6-6-6-2-2-2-2-2-2-2-2------------| 
A|7-7-7-7-7-7-7-7-6-6-6-6-6-6-6-6-4-4-4-4-4-4-4-4-0-0-0-0-0-0-0-0------------| 
E|7-7-7-7-7-7-7-7------------------------------------------------------------| 

Intro Cont'd:  Guitar 1 
e|---------------------------------------------------------------------------| 
B|----------------------------------------0-0-0-0-0-0-0-1~-------------------| 
G|9-9-9-9-9-5-5-5-5-5-6-6-6-6-6-4-4-4-4-4-2-2-2-2-2-2-2-2~-------------------| 
D|9-9-9-9-9-5-5-5-5-5-6-6-6-6-6-4-4-4-4-4-2-2-2-2-2-2-2-2~-------------------| 
A|7-7-7-7-7-3-3-3-3-3-4-4-4-4-4-2-2-2-2-2-0-0-0-0-0-0-0-0~-------------------| 
E|7-7-7-7-7-3-3-3-3-3--------------------------------------------------------| 

Verse:  Guitar 1 
e|---------------------------------------------------------------------------| 
B|----------7----------------------0-----------------------------------------| 
G|9---------8------6---------------2----------------9--------5---------6-----| 
D|9---------9------6---------------2----------------9--------5---------6-----| 
A|7---------6------4---------------0----------------7--------3---------4-----| 
E|7-------------------------------------------------7--------3---------------| 
  30th of April, seems like yest-er-day, bought a house above the ocean 

Verse Cont'd:  Guitar 1 
e|---------------------------------------------------------------------------| 
B|-----------------------------0----1----------------------7-----------------| 
G|----------4------------------2----2--9-------------------8-----6-----------| 
D|----------4------------------2----2--9-------------------9-----6-----------| 
A|----------2------------------0----0--7-------------------6-----4-----------| 
E|-------------------------------------7-------------------------------------| 
where our kids could laugh and play.   I called you from Paris   to tell 

Verse Cont'd:  Guitar 1 
e|---------------------------------------------------------------------------| 
B|---------0------------------------------------------------------0---------1| 
G|---------2-----------9------------5-------------6---4-----------2---------2| 
D|---------2-----------9------------5-------------6---4-----------2---------2| 
A|---------0-----------7------------3-------------4---2-----------0---------0| 
E|---------------------7------------3----------------------------------------| 
you that I wrote our names on the observation deck  of the Eiff-el Tower. 

Pre Chorus:  Guitar 1 
e|---------------------------------------------------------------------------| 
B|-------------0------------------------------------------------------0------| 
G|-------------2--------------------6------------------4--------------2------| 
D|4------------2--------------------6------------------4--------------2------| 
A|4------------0--------------------4------------------2--------------0------| 
E|2--------------------------------------------------------------------------| 
  Remember those nights, playing summer wind in the jukebox of the bar we 

Pre Chorus Cont'd:  Guitar 1 
e|---------------------------------------------------------------------------| 
B|-----------------------------------------------------------------0---------| 
G|-----------------------------------------------------------------2---------| 
D|-------4--------------------------------6------------------------2---------| 
A|-------4--------------------------------6------------------------0---------| 
E|-------2--------------------------------4----------------------------------| 
go, we made out in the bathroom and you walked me to my house, I tried to 

Pre Chorus Cont'd:  Guitar 1 
e|---------------------------------x-x-x-x-x---------------------------------| 
B|--------------------1------------x-x-x-x-x---------------------------------| 
G|--------------------2------------x-x-x-x-x---------------------------------| 
D|--------------------2------------x-x-x-x-x---------------------------------| 
A|--------------------0------------x-x-x-x-x---------------------------------| 
E|---------------------------------x-x-x-x-x---------------------------------| 
convince you not to go home. 

Chorus:  Guitar 1 
e|---------------------------------------------------------------------------| 
B|--------------------------------------------------------0------------------| 
G|---9-----------5----------------------6---------4-------2-----9-----5------| 
D|---9-----------5----------------------6---------4-------2-----9-----5------| 
A|---7-----------3----------------------4---------2-------0-----7-----3------| 
E|---7-----------3----------------------------------------------7-----3------| 
If only I had more time, I'd take you where you wanted to go, Italy isn't 

Chorus Cont'd:  Guitar 1 
e|---------------------------------------------------------------------------| 
B|----------------------0-----1------x-x-x-x-x-------------------------------| 
G|------6-------4-------2-----2------x-x-x-x-x-----9----------5--------------| 
D|------6-------4-------2-----2------x-x-x-x-x-----9----------5--------------| 
A|------4-------2-------0-----0------x-x-x-x-x-----7----------3--------------| 
E|-----------------------------------x-x-x-x-x-----7----------3--------------| 
the same without you here.                    If only I had one wish, I'd 

Chorus Cont'd:  Guitar 1 
e|---------------------------------------------------------------------------| 
B|---------------------------------------0-----------------------------------| 
G|-------6----------------4--------------2-----------------------9-------5---| 
D|-------6----------------4--------------2-----------------------9-------5---| 
A|-------4----------------2--------------0-----------------------7-------3---| 
E|---------------------------------------------------------------7-------3----| 
want a million trillion lifetimes that I could spend with you, fall in love 

Chorus Cont'd:  Guitar 1 
e|---------------------------------------------------------------------------| 
B|--------------------0-------1~---------------------------------------------| 
G|-----6----4---------2-------2~---------------------------------------------| 
D|-----6----4---------2-------2~---------------------------------------------| 
A|-----4----2---------0-------0~---------------------------------------------| 
E|---------------------------------------------------------------------------| 
with you again and a-gain, a-gain. 

Repeat Verse: 1st of November, 1998 
             I was thinking of what to say 
             When I would call 
             Denise come over to my house 
             Cuz you're the one for me(you're the one for me) 
             We'll drink cheap wine 
             And watch for shooting stars 

Repeat Pre Chorus: Remember our first apartment 
                  Our couch was never big enough for two 
                  Still we'd fall asleep in each others arms 
                  And wake up on the floor 
                  Now looking back it was made for me and you 

Repeat Chorus 

Outro:  Guitar 1 
e|---------------------------------------------------------------------------| 
B|--------------------------------------------0-0-0-0-0-0-0-0----------------| 
G|9-9-9-9-9-9-9-9-5-5-5-5-5-5-5-5-6-6-6-4-4-4-2-2-2-2-2-2-2-2----------------| 
D|9-9-9-9-9-9-9-9-5-5-5-5-5-5-5-5-6-6-6-4-4-4-2-2-2-2-2-2-2-2----------------| 
A|7-7-7-7-7-7-7-7-3-3-3-3-3-3-3-3-4-4-4-2-2-2-0-0-0-0-0-0-0-0----------------| 
E|7-7-7-7-7-7-7-7-3-3-3-3-3-3-3-3--------------------------------------------| 

Outro Cont'd:  Guitar 1  (2x)                                 End On: 
e|------------------------------------------------------------------|--------| 
B|----------------------------------------0-0-0-0-0-1-1-1-1-1-------|--0~----| 
G|9-9-9-9-9-5-5-5-5-5-6-6-6-6-6-4-4-4-4-4-2-2-2-2-2-2-2-2-2-2-------|--2~----| 
D|9-9-9-9-9-5-5-5-5-5-6-6-6-6-6-4-4-4-4-4-2-2-2-2-2-2-2-2-2-2-------|--2~----| 
A|7-7-7-7-7-3-3-3-3-3-4-4-4-4-4-2-2-2-2-2-0-0-0-0-0-0-0-0-0-0-------|--0~----| 
E|7-7-7-7-7-3-3-3-3-3-----------------------------------------------|--------| 

Outro:  Guitar 2 
e|----4-5-7---7/9-7--4-5-4-----------2-4-2-----------------------------------| 
B|-5--------4--------------5/7-5\4-1-------4--5-4----------------------------| 
G|------------------------------------------------4---6-4------------1-2-4---| 
D|--------------------------------------------------6-----4/6-4---6--------4~| 
A|--------------------------------------------------------------7------------| 
E|---------------------------------------------------------------------------| 

Outro Cont'd:  Guitar 2 
e|---4-5-7------12~--12-11-12-14-12-11-9\7-7--4-5-7-7-5-4-5-4----------------| 
B|-5-------5/12-----------------------------------------------5/7-5\4\2~-----| 
G|-------------------------------------------------------------------------4~| 
D|---------------------------------------------------------------------------| 
A|---------------------------------------------------------------------------| 
E|---------------------------------------------------------------------------| 
Tap to rate this tab
# A B C D E F G H I J K L M N O P Q R S T U V W X Y Z