Song name
# A B C D E F G H I J K L M N O P Q R S T U V W X Y Z

Ataris - The Hero Dies In This One tab

--------------------------------------------------------------------------
             THE HERO DIES IN THIS ONE - The*Ataris
--------------------------------------------------------------------------

Tabbed by: Koen DP
e-mail: end_4ever@hotmail.com

Solo:
e-0-0-0--2-2-2-----------------------0-0-0--2-2-2-----------------2--3--|
B---------------2-2-2--3-3-3-----------------------2-2-2--3-3-3---------|
G-----------------------------4-4-4-------------------------------------|
D-----------------------------------------------------------------------|
A-----------------------------------------------------------------------|
E-----------------------------------------------------------------------|

e--1/3--2----------1/3--2------------|
B---------3~---------------3~--------|
G------------------------------------|
D------------------------------------| 
A------------------------------------|
E------------------------------------|
Tap to rate this tab
 
# A B C D E F G H I J K L M N O P Q R S T U V W X Y Z