Song name
# A B C D E F G H I J K L M N O P Q R S T U V W X Y Z

Ataris - Between You And Me tab

============================================================================
                      BETWEEN YOU AND ME - The Ataris
============================================================================

Tabbed by: Koen DP
E-mail: end_4ever@hotmail.com
Tuning: standard

Intro: 
e|------------------------------------------------------------------------|
B|--14--14--15--14h15p14----14--14--17--14h15p14----14--14--15--14h15p14--|
G|----14--14--14--------------14--14--14--------------14--14--14----------|
D|------------------------------------------------------------------------|
A|------------------------------------------------------------------------|
E|------------------------------------------------------------------------|

e|-------------------------|
B|--14--14---171717171717--|
G|----14--14---------------|
D|-------------------------|
A|-------------------------|
E|-------------------------|


Verse: 
(this part 3x)
e|--------------------------------------|
B|--------------------------------------|
G|--------------------------------------|
D|----6-----6h7-7--------7---6---7p6----|
A|--4---5----------------------------7--|
E|---------------------5---0------------|

Verse continue
e|----------------------------------|
B|----------------------------------|
G|--------------------7--6--9-9999--|
D|----6-----6h7-7-----x--x--x-xxxx--|
A|--4---5-------------5--4--7-7777--|
E|----------------------------------|


Chorus
e|----------------------------------------------------------------|
B|----------------------------------S-----------------------------|
G|----------------------999-111111--T--77777777--99999999--xxxxx--|
D|--7-77--66-666--4-44--999-111111--O--77777777--99999999--xxxxx--|
A|--7-77--66-666--4-44--777--9-9-9--P--55555555--77777777--xxxxx--|
E|--5-55--44-444--2-22--------------------------------------------|

e|--------------------------------------------------|
B|--------------------------------------------------|
G|-----------------------14--13--14--13--9--11--9~--|
D|--7-77--66-666--4-44----x---x---x---x--x---x--x---|
A|--7-77--66-666--4-44---12--11--12--11--7---9--7~--|
E|--5-55--44-444--2-22------------------------------|


Repeat intro: (first part 3x)
e|------------------------------------------------|
B|--14--14--15--14h15p14----14--14--17--14h15p14--|
G|----14--14--14--------------14--14--14----------|
D|------------------------------------------------|
A|------------------------------------------------|
E|------------------------------------------------|

(then play this)
e|-------------------------------------------------|
B|--14--14--15--14h15p14----14--14---171717171717--|
G|----14--14--14--------------14--14---------------|
D|-------------------------------------------------|
A|-------------------------------------------------|
E|-------------------------------------------------|


Verse 2: 
(this part 3x)
e|--------------------------------------|
B|--------------------------------------|
G|--------------------------------------|
D|----6-----6h7-7--------7---6---7p6----|
A|--4---5----------------------------7--|
E|---------------------5---0------------|

Verse continue    
e|----------------------|
B|----------------------|
G|--777777--7777777777--|
D|--777777--7777777777--|
A|--555555--5555555555--|
E|----------------------|
  Pm......

Chorus
e|----------------------------------------------------------------|
B|----------------------------------S-----------------------------|
G|----------------------999-111111--T--77777777--99999999--xxxxx--|
D|--7-77--66-666--4-44--999-111111--O--77777777--99999999--xxxxx--|
A|--7-77--66-666--4-44--777--9-9-9--P--55555555--77777777--xxxxx--|
E|--5-55--44-444--2-22--------------------------------------------|

e|--------------------------------------------------|
B|--------------------------------------------------|
G|-----------------------14--13--14--13--9--11--9~--|
D|--7-77--66-666--4-44----x---x---x---x--x---x--x---|
A|--7-77--66-666--4-44---12--11--12--11--7---9--7~--|
E|--5-55--44-444--2-22------------------------------|


Outro
e|-------------------------------------------------------------------|
B|-------------------------------------------------------------------|
G|--666666666666666-777777777777777-----------------999999999999999--|
D|--666666666666666-777777777777777-777777777777777-999999999999999--|
A|--444444444444444-555555555555555-777777777777777-777777777777777--|
E|----------------------------------555555555555555------------------|

e|--------------------------------------------|
B|--------------------------------------------|
G|--666666666666666-777777777777777-------9~--|
D|--666666666666666-777777777777777-7777--9~--|
A|--444444444444444-555555555555555-7777--7~--|
E|----------------------------------5555------|

e|--------------------------------------------------------------------------|
B|--------------------------------------------------------------------------|
G|--------------------------------------------------------------------------|
D|-----6---7---6h7-7-----7---6---7p6--------6---7---6h7------7---9---9---9--|
A|---4---5---5---------0---7---7-----7----4---5---5--------0---7---7---7----|
E|--------------------------------------------------------------------------|

e|--------------------------------------------|
B|--------------------------------------------|
G|----------------------------------------5~--|
D|-----6---7---6h7-7-----7---6---7p6------5~--|
A|---4---5---5---------0---7---7-----7-5--7~--|
E|--------------------------------------------|
Tap to rate this tab
# A B C D E F G H I J K L M N O P Q R S T U V W X Y Z