Ataris - In This Diary tab

============================================================================
                        IN THIS DIARY - The Ataris
============================================================================

Tabbed by: Koen DP
E-mail: end_4ever@hotmail.com
Tuning: Standard

The reason why I tabbed this 4th version is because the first version is
 not complete and the other tabs are in dropped D and still take lot of
 time to figure out. So I made this tab for playing one guitar with the 
record. Everything is lined up so there should be nothing to figure out.
 Hope you'll like it!

Intro (0:00) 
e----------------------------------------------| 
B----------------------------------------------| 
G--55555555--8888--5555--6666--5555--66666666--|
D--66666666--8888--6666--6666--6666--66666666--|
A--66666666--6666--6666--4444--4444--44444444--|
E----------------------------------------------| 
Pm ........  ....  ....  ....  ....  ........


Verse 1 (0:11) 
e-------------------------------------------------------------| 
B-------------------------------------------------------------|
G-----------88888888------------66666666------------88888888--| 
D-33333333--88888888--66666666--66666666--33333333--88888888--| 
A-33333333--66666666--66666666--44444444--33333333--66666666--| 
E-11111111------------44444444------------11111111------------|
Pm........  ........  ........  ........  ........  ........
  Here in this diary - - -

e-------------------------------------|
B-------------------------------------|
G--66-666---55-555---66-666---55-555--|
D--66-666---66-666---66-666---66-666--|
A--44-444---44-444---44-444---44-444--|
E-------------------------------------| 

e-------------------------------------------------------------| 
B-------------------------------------------------------------|
G-----------88888888------------66666666------------88888888--| 
D-33333333--88888888--66666666--66666666--33333333--88888888--| 
A-33333333--66666666--66666666--44444444--33333333--66666666--| 
E-11111111------------44444444------------11111111------------|
Pm........  ........  ........  ........  ........  ........
  All the nights we - - -

e-------------------------------------|
B-------------------------------------|
G--66-666---55-555---66-666---55-555--|
D--66-666---66-666---66-666---66-666--|
A--44-444---44-444---44-444---44-444--|
E-------------------------------------| 

e----------------------------------------------|
B----------------------------------------------|
G----------------------------------------------|
D--33-333--3/6-6--666--66-666-6/10-10--101010--|
A--11-111--1/4-4--444--44-444-4/8---8---8-8-8--| 
E----------------------------------------------|


Chorus (1:00)
e-----------------------------------------------------| 
B-----------------------------------------------------|
G----------88-8888----------66-6666----------88-8888--| 
D--33-333--88-8888--66-666--66-6666--33-333--88-8888--| 
A--33-333--66-6666--66-666--44-4444--33-333--66-6666--| 
E--11-111-----------44-444-----------11-111-----------|
   Being grown up - - -

e-------------------|
B-------------------|
G--66-666---55-555--|
D--66-666---66-666--|
A--44-444---44-444--|
E-------------------| 

e-----------------------------------------------------| 
B-----------------------------------------------------|
G----------88-8888----------66-6666----------88-8888--| 
D--33-333--88-8888--66-666--66-6666--33-333--88-8888--| 
A--33-333--66-6666--66-666--44-4444--33-333--66-6666--| 
E--11-111-----------44-444-----------11-111-----------|

Chorus ending	 (1:20)
e------------------------------|
B------------------------------|
G--333333-555555-33333-555555--| 
D--666666-666666-66666-666666--|
A--666666-666666-66666-666666--| 
E------------------------------|
 Pm...... ...... ..... ......


Verse 2 (1:25)
e-------------------------------------------------------------| 
B-------------------------------------------------------------|
G-----------88888888------------66666666------------88888888--| 
D-33333333--88888888--66666666--66666666--33333333--88888888--| 
A-33333333--66666666--66666666--44444444--33333333--66666666--| 
E-11111111------------44444444------------11111111------------|
Pm........  ........  ........  ........  ........  ........
  Breaking into hotel - - -

e-------------------------------------|
B-------------------------------------|
G--66-666---55-555---66-666---55-555--|
D--66-666---66-666---66-666---66-666--|
A--44-444---44-444---44-444---44-444--|
E-------------------------------------| 

e-------------------------------------------------------------| 
B-------------------------------------------------------------|
G-----------88888888------------66666666------------88888888--| 
D-33333333--88888888--66666666--66666666--33333333--88888888--| 
A-33333333--66666666--66666666--44444444--33333333--66666666--| 
E-11111111------------44444444------------11111111------------|
Pm........  ........  ........  ........  ........  ........
  Lighting fireworks - - -
 
e-------------------------------------|
B-------------------------------------|
G--66-666---55-555---66-666---55-555--|
D--66-666---66-666---66-666---66-666--|
A--44-444---44-444---44-444---44-444--|
E-------------------------------------| 

e----------------------------------------------|
B----------------------------------------------|
G----------------------------------------------|
D--33-333--3/6-6--666--66-666-6/10-10--101010--|
A--11-111--1/4-4--444--44-444-4/8---8---8-8-8--| 
E----------------------------------------------|


Repeat chorus (2:14)

Chorus ending (2:34)
e-----------------------------------------------------------| 
B-----------------------------------------------------------|
G--333333-555555-333333-555555-333333-555555-333333-555555--| 
D--666666-666666-666666-666666-666666-666666-666666-666666--|
A--666666-666666-666666-666666-666666-666666-666666-666666--| 
E-----------------------------------------------------------|
 Pm...... ...... ...... ...... ...... ...... ...... ......

e--------------------------------------------------| 
B--------------------------------------------------|
G--333333-555555-333333-555555-333333--6666666666--| 
D--666666-666666-666666-666666-666666--6666666666--|
A--666666-666666-666666-666666-666666--6666666666--| 
E--------------------------------------------------|
 Pm...... ...... ...... ...... ......  ....


Repeat chorus (2:55)

Chorus ending (3:15)
e---------------|
B---------------|
G--66-666---5\--|
D--66-666---6\--|
A--44-444---4\--|
E---------------| 

Repeat chorus (3:17)

End
e------|
B------|
G--6~--|
D--6~--|
A--4~--|
E------| 
Tap to rate this tab
 
# A B C D E F G H I J K L M N O P Q R S T U V W X Y Z