Song name
# A B C D E F G H I J K L M N O P Q R S T U V W X Y Z

Ataris - Looking Back On Today tab

Intro:
e|-----------------------------------x-------|
B|---5---7---5---2----5-5-5-4-2---1--x-------|
G|---4---4---6---2----4-4-6-4-2---2--x-------|
D|---2-------6---2----2-2-6-4-2---2--x-------|
A|---2---6---4--------2-3-4-2--------x-------|
E|-----------------------------------x-------|

Verse:
e|---------------------------------------|
B|---5---7---5---2----5-5-5-4-2---1------|
G|---4---4---6---2----4-4-6-4-2---2------| x2
D|---2-------6---2----2-2-6-4-2---2------|
A|---2---6---4--------2-3-4-2------------|
E|---------------------------------------|

Brigde:
e|-----------------------------------x----|
B|---2---2---5-4-2---2---4---2---1---x----|
G|---2---2---6-4-2---2---4---2---2---x----|
D|---4---2---6-4-2---4---6---2---2---x----|
A|---4-------4-2-----4---6-----------x----|
E|---2---------------2---4-----------x----|

Chorus:

e|----------------------------------------------------------------------|
B|---5---5---5-4-2---5-5-5-4-2---1---5---5---5-4-2---5-5-5-4-2---1------|
G|---4---4---6-4-2---4-4-6-4-2---2---4---4---6-4-2---4-4-6-4-2---2------|
D|---2---2---6-4-2---2-2-6-4-2---2---2---2---6-4-2---2-2-6-4-2---2------|
A|---2---3---4-2-----2-3-4-2---------2---3---4-2-----2-3-4-2------------|
E|----------------------------------------------------------------------|

Verse:
e|---------------------------------------|
B|---5---7---5---2----5-5-5-4-2---1------|
G|---4---4---6---2----4-4-6-4-2---2------| x2
D|---2-------6---2----2-2-6-4-2---2------|
A|---2---6---4--------2-3-4-2------------|
E|---------------------------------------|

Brigde:
e|-----------------------------------x----|
B|---2---2---5-4-2---2---4---2---1---x----|
G|---2---2---6-4-2---2---4---2---2---x----|
D|---4---2---6-4-2---4---6---2---2---x----|
A|---4-------4-2-----4---6-----------x----|
E|---2---------------2---4-----------x----|

Chorus:

e|----------------------------------------------------------------------|
B|---5---5---5-4-2---5-5-5-4-2---1---5---5---5-4-2---5-5-5-4-2---1------|
G|---4---4---6-4-2---4-4-6-4-2---2---4---4---6-4-2---4-4-6-4-2---2------|
D|---2---2---6-4-2---2-2-6-4-2---2---2---2---6-4-2---2-2-6-4-2---2------|
A|---2---3---4-2-----2-3-4-2---------2---3---4-2-----2-3-4-2------------|
E|----------------------------------------------------------------------|

Solo: 
e|------------------------------------------------------------------------|
B|----9-10-12---12/14-12--9-10-9-5/7-5-----9-7----------------------------|
G|--9---------8------------------------6-9-----8-8/9-8-----4/6-4----------|
D|-----------------------------------------------------9-6-------6-4----6-|
A|-------------------------------------------------------------------7----|
E|------------------------------------------------------------------------|

e|-------------------------12/14-12--12-11-12-14-12-11-9-7--7-7-7-5-4-5-4-|
B|--------------9-10-12---------------------------------------------------|
G|------------9-----------------------------------------------------------|
D|--6-7-9---------------13------------------------------------------------|
A|--------9---------------------------------------------------------------|
E|------------------------------------------------------------------------|

e|-----------------------------------4/5-4-0/2-0-------|
B|--5-5/7-5-4-2----------------------------------------|
G|-----------------------------------------------------|
D|-----------------------------------------------------|
A|-----------------------------------------------------|
E|-----------------------------------------------------|

Tap to rate this tab
# A B C D E F G H I J K L M N O P Q R S T U V W X Y Z