Song name
# A B C D E F G H I J K L M N O P Q R S T U V W X Y Z

Ataris - Looking Back On Today Acoustic tab

Here after all these years, the correct solo for looking back on today
from the vans warped tour compilation.
i'm pretty sure it's 100% accurate but please let me know about any corrections at 
drchrism@gmail.com

e|-----------------9--7----------------------------------------|
B|----9-10-12--------------9-10-9--7---------9-7---------------|
G|--9----------8---------------------9------8---8-9-8-------6--|
D|-------------------------------------7--9------------9--6----|
A|-------------------------------------------------------------|
E|-------------------------------------------------------------|


e|--------------------------------------12---12-11-12-14-12-11-|
B|---------------------------9-10-12---------------------------|
G|------------------------9------------------------------------|
D|-9-6-4--6---6-7-9------------------13------------------------|
A|-------7----------9------------------------------------------|
E|-------------------------------------------------------------|


e|--9---7-77---------------------------------------------------|
B|---------------910-12,12-10-9-10-9-5\7-5-4-2(ring)-----------|
G|-------------------------------------------------------------|
D|-------------------------------------------------------------|
A|-------------------------------------------------------------|
E|-------------------------------------------------------------|
Tap to rate this tab
# A B C D E F G H I J K L M N O P Q R S T U V W X Y Z