Song name
# A B C D E F G H I J K L M N O P Q R S T U V W X Y Z

Ataris - I Wont Spend Another Night Alone tab

hey, i think this is right, it sounds right at least

I Wont Spend Another Night Alone - The Ataris

Tabbed by: Robbie Lewis

Tuning: standard
	intro/chorus
e|---------------------------------------------------------------------------|
B|---------------------------------------------------------------------------|
G|--------5------7------3----------------------------------------------------|
D|-3------5-x12--7-x12--3-x12------------------------------------------------|
A|-3-x12--3------5------1----------------------------------------------------|
E|-1-------------------------------------------------------------------------|
	verse
e|---------------------------------------------------------------------------|
B|---------------------------------------------------------------------------|
G|--------5------7------3----------------------------------------------------|
D|-3------5-x12--7-x12--3-x12------------------------------------------------|
A|-3-x12--3------5------1----------------------------------------------------|
E|-1-------------------------------------------------------------------------|
pm............................
	interlude in chorus and verses
e|---------------------------------------------------------------------------|
B|---------------------------------------------------------------------------|
G|-3-2---3-2---5-3-2---------------------------------------------------------|
D|-----3-----3---------------------------------------------------------------|
A|---------------------------------------------------------------------------|
E|---------------------------------------------------------------------------|
	solo
e|---------------------------------------------------------------------------|
B|--------------------11-10----13-11-10-11-10----13-11-10--------------------|
G|-10-9-10-12-10-9-x3-------10----------------10----------10-9-10-12-10-9-x4-|
D|---------------------------------------------------------------------------|
A|---------------------------------------------------------------------------|
E|---------------------------------------------------------------------------|
	outro
e|---------------------------------------------------------------------------|
B|---------------------------------------------------------------------------|
G|---------------------------------------------------------------------------|
D|-3x12-2x12-3x6-2x6---------3x12-7x3-5x12-7x3-8x3-7x3-5x3-3x3-8x3-7x3-5x6-3-|
A|-------------------1x6-3x6-------------------------------------------------|
E|---------------------------------------------------------------------------|


| /  slide up
| \  slide down
| h  hammer-on
| p  pull-off
| ~  vibrato
| +  harmonic
| x  Mute note
===============================================================================
Tap to rate this tab
 
# A B C D E F G H I J K L M N O P Q R S T U V W X Y Z