Song name
# A B C D E F G H I J K L M N O P Q R S T U V W X Y Z

Ataris - The Saddest Song tab

Help us improve GuitareTab! Take a short survey!
saddest song- the ataris

standard tuning:eBGDAE

hi there!c",)v
i'm khAiLa of ECE13 studying at DLSU-D..
I cannot give the exact percentage of the accuracy of this tab, 
but hope you'll appreciate my work..(**,)
thanks for those you will rate this tab
even though this is not perfect.. 
please do not hesitate to come up with suggestions 
or any violent reactions regarding this tab..
friendster: micah_rockzz@yahoo.com
add me up..c=

		----LYRICS BELOW---

Intro: Guitar1 solo

e--7h8-7-------------------|-7h8-7---10-8--------12h13-12|
B-------8---10-8-----------|------8-------10-12s13-------|
G---------9----------------|-------9---------------------|
D------------------10------|-----------------------------|
A--------------------12-10-|-----------------------------|
E--------------------------|-----------------------------|

e-----10-8--------|----------------|
B-13-10-----------|----------------|
G----------7-9-10-|----------------|
D-----------------|9-11-11s12-9-11-|
A-----------------|----------------|
E-----------------|----------------|i'm not sure with this part..

Intro2: Repeat the intro of guitar 1 accompanied by Guitar2
(guitar2)
e----------------------------------------|
B----------------------------------------|
G-----------99999999--77777777--55555555-|
D-55555555--99999999--77777777--55555555-|
A-55555555--77777777--55555555--33333333-|
E-33333333-------------------------------|

Verse:

e----------------------------------------|
B----------------------------------------|
G-----------99999999--77777777--55555555-|
D-55555555--99999999--77777777--55555555-| (2x)
A-55555555--77777777--55555555--33333333-|
E-33333333-------------------------------|

Refrain:

e----------------|------------|
B----------------|------------|
G-99--77------55-|-99--77--55-|
D-99--77--55--55-|-99--77--55-|  (2x)
A-77--55--55--33-|-77--55--33-|
E---------33-----|------------|

Chorus:

e----------------------------------------|
B----------------------------------------|
G-----------99999999--77777777--55555555-|
D-55555555--99999999--77777777--55555555-|
A-55555555--77777777--55555555--33333333-|
E-33333333-------------------------------|

e--7h8-7-------------------|-7h8-7---10-8--------12h13-12|
B-------8---10-8-----------|------8-------10-12s13-------|
G---------9----------------|-------9---------------------|
D------------------10------|-----------------------------|
A--------------------12-10-|-----------------------------|
E--------------------------|-----------------------------|

e-----10-8--------|
B-13-10-----------|
G----------7-9-10-|
D-----------------|
A-----------------|
E-----------------|

Verse 2:

e----------------------------------------|
B----------------------------------------|
G-----------99999999--77777777--55555555-|
D-55555555--99999999--77777777--55555555-| (2x)
A-55555555--77777777--55555555--33333333-|
E-33333333-------------------------------|

Repeat Refrain
       Chorus(2x)

LYRICS:

The Saddest Song
The Ataris

Only two more days until your birthday yesterday was mine.
You'll be turning five I know what it's like growing up
Without your father in your life

Refrain:

so I pretend I'm doing all I can
and I hope someday you'll find it in your heart
to understand why I'm not around
and forgive me for not being in your life

CHORUS:

I remember waiting for you to come 
remember waiting for you to call
I remember waiting there to find nothing at all
I remember waiting for you to come
remember waiting for you to call
Waiting there to find nothing at all.

Verse 2:

Maybe someday you'll really get to know me
Not just from letters read to you
I pray I get the chance to make it up to you
We've got a lot of catching up to do.

Repeat Refrain
       Chorus(2x)
     
Related for The Saddest Song tab